  0
SECTION
  2
HEADER
  9
$ACADVER
  1
AC1009
  9
$DWGCODEPAGE
  3
ansi_1252
  9
$INSBASE
 10
0.0
 20
0.0
 30
0.0
  9
$EXTMIN
 10
0.0
 20
0.0
 30
0.0
  9
$EXTMAX
 10
297.0
 20
210.0
 30
0.0
  9
$LIMMIN
 10
0.0
 20
0.0
  9
$LIMMAX
 10
297.0
 20
210.0
  9
$ORTHOMODE
 70
     0
  9
$REGENMODE
 70
     1
  9
$FILLMODE
 70
     1
  9
$QTEXTMODE
 70
     0
  9
$MIRRTEXT
 70
     1
  9
$DRAGMODE
 70
     2
  9
$LTSCALE
 40
1.0
  9
$OSMODE
 70
    37
  9
$ATTMODE
 70
     1
  9
$TEXTSIZE
 40
2.5
  9
$TRACEWID
 40
1.0
  9
$TEXTSTYLE
  7
STANDARD
  9
$CLAYER
  8
0
  9
$CELTYPE
  6
BYLAYER
  9
$CECOLOR
 62
   256
  9
$DIMSCALE
 40
1.0
  9
$DIMASZ
 40
2.5
  9
$DIMEXO
 40
0.625
  9
$DIMDLI
 40
3.75
  9
$DIMRND
 40
0.0
  9
$DIMDLE
 40
0.0
  9
$DIMEXE
 40
1.25
  9
$DIMTP
 40
0.0
  9
$DIMTM
 40
0.0
  9
$DIMTXT
 40
2.5
  9
$DIMCEN
 40
2.5
  9
$DIMTSZ
 40
0.0
  9
$DIMTOL
 70
     0
  9
$DIMLIM
 70
     0
  9
$DIMTIH
 70
     0
  9
$DIMTOH
 70
     0
  9
$DIMSE1
 70
     0
  9
$DIMSE2
 70
     0
  9
$DIMTAD
 70
     1
  9
$DIMZIN
 70
     8
  9
$DIMBLK
  1

  9
$DIMASO
 70
     1
  9
$DIMSHO
 70
     1
  9
$DIMPOST
  1

  9
$DIMAPOST
  1

  9
$DIMALT
 70
     0
  9
$DIMALTD
 70
     3
  9
$DIMALTF
 40
0.0393700787
  9
$DIMLFAC
 40
1.0
  9
$DIMTOFL
 70
     1
  9
$DIMTVP
 40
0.0
  9
$DIMTIX
 70
     0
  9
$DIMSOXD
 70
     0
  9
$DIMSAH
 70
     0
  9
$DIMBLK1
  1

  9
$DIMBLK2
  1

  9
$DIMSTYLE
  2
ISO-25
  9
$DIMCLRD
 70
     0
  9
$DIMCLRE
 70
     0
  9
$DIMCLRT
 70
     0
  9
$DIMTFAC
 40
1.0
  9
$DIMGAP
 40
0.625
  9
$LUNITS
 70
     2
  9
$LUPREC
 70
     4
  9
$SKETCHINC
 40
1.0
  9
$FILLETRAD
 40
10.0
  9
$AUNITS
 70
     0
  9
$AUPREC
 70
     0
  9
$MENU
  1
.
  9
$ELEVATION
 40
0.0
  9
$PELEVATION
 40
0.0
  9
$THICKNESS
 40
0.0
  9
$LIMCHECK
 70
     0
  9
$CHAMFERA
 40
10.0
  9
$CHAMFERB
 40
10.0
  9
$SKPOLY
 70
     0
  9
$TDCREATE
 40
2457029.663331435
  9
$TDUPDATE
 40
2457029.663581493
  9
$TDINDWG
 40
0.0000000116
  9
$TDUSRTIMER
 40
0.0000000116
  9
$USRTIMER
 70
     1
  9
$ANGBASE
 50
0.0
  9
$ANGDIR
 70
     0
  9
$PDMODE
 70
     0
  9
$PDSIZE
 40
0.0
  9
$PLINEWID
 40
0.0
  9
$COORDS
 70
     1
  9
$SPLFRAME
 70
     0
  9
$SPLINETYPE
 70
     6
  9
$SPLINESEGS
 70
     8
  9
$ATTDIA
 70
     0
  9
$ATTREQ
 70
     1
  9
$HANDLING
 70
     1
  9
$HANDSEED
  5
873
  9
$SURFTAB1
 70
     6
  9
$SURFTAB2
 70
     6
  9
$SURFTYPE
 70
     6
  9
$SURFU
 70
     6
  9
$SURFV
 70
     6
  9
$UCSNAME
  2

  9
$UCSORG
 10
0.0
 20
0.0
 30
0.0
  9
$UCSXDIR
 10
1.0
 20
0.0
 30
0.0
  9
$UCSYDIR
 10
0.0
 20
1.0
 30
0.0
  9
$PUCSNAME
  2

  9
$PUCSORG
 10
0.0
 20
0.0
 30
0.0
  9
$PUCSXDIR
 10
1.0
 20
0.0
 30
0.0
  9
$PUCSYDIR
 10
0.0
 20
1.0
 30
0.0
  9
$USERI1
 70
     0
  9
$USERI2
 70
     0
  9
$USERI3
 70
     0
  9
$USERI4
 70
     0
  9
$USERI5
 70
     0
  9
$USERR1
 40
0.0
  9
$USERR2
 40
0.0
  9
$USERR3
 40
0.0
  9
$USERR4
 40
0.0
  9
$USERR5
 40
0.0
  9
$WORLDVIEW
 70
     1
  9
$SHADEDGE
 70
     3
  9
$SHADEDIF
 70
    70
  9
$TILEMODE
 70
     1
  9
$MAXACTVP
 70
    64
  9
$PLIMCHECK
 70
     0
  9
$PEXTMIN
 10
0.0
 20
0.0
 30
0.0
  9
$PEXTMAX
 10
297.0
 20
210.0
 30
0.0
  9
$PLIMMIN
 10
0.0
 20
0.0
  9
$PLIMMAX
 10
297.0
 20
210.0
  9
$UNITMODE
 70
     0
  9
$VISRETAIN
 70
     1
  9
$PLINEGEN
 70
     0
  9
$PSLTSCALE
 70
     1
  0
ENDSEC
  0
SECTION
  2
TABLES
  0
TABLE
  2
VPORT
 70
     1
  0
VPORT
  2
*ACTIVE
 70
     0
 10
0.0
 20
0.0
 11
1.0
 21
1.0
 12
344.1869158879
 22
148.5
 13
0.0
 23
0.0
 14
10.0
 24
10.0
 15
10.0
 25
10.0
 16
0.0
 26
0.0
 36
1.0
 17
0.0
 27
0.0
 37
0.0
 40
297.0
 41
1.9729729729
 42
50.0
 43
0.0
 44
0.0
 50
0.0
 51
0.0
 71
     0
 72
   100
 73
     1
 74
     3
 75
     0
 76
     0
 77
     0
 78
     0
  0
ENDTAB
  0
TABLE
  2
LTYPE
 70
     4
  0
LTYPE
  2
CONTINUOUS
 70
     0
  3
Solid line
 72
    65
 73
     0
 40
0.0
  0
LTYPE
  2
HIDDEN2
 70
     0
  3
Hidden (.5x) _ _ _ _ _ _ _ _ _ _ _ _ _ _ _ _ _ 
 72
    65
 73
     2
 40
4.7625
 49
3.175
 49
-1.5875
  0
LTYPE
  2
DOT2
 70
     0
  3
Dot (.5x) ........................................
 72
    65
 73
     2
 40
3.175
 49
0.0
 49
-3.175
  0
LTYPE
  2
CENTER2
 70
     0
  3
Center (.5x) ___ _ ___ _ ___ _ ___ _ ___ _ ___
 72
    65
 73
     4
 40
28.575
 49
19.05
 49
-3.175
 49
3.175
 49
-3.175
  0
ENDTAB
  0
TABLE
  2
LAYER
 70
     5
  0
LAYER
  2
0
 70
     0
 62
     7
  6
CONTINUOUS
  0
LAYER
  2
SK2
 70
     0
 62
     7
  6
CONTINUOUS
  0
LAYER
  2
SK1
 70
     0
 62
     4
  6
CONTINUOUS
  0
LAYER
  2
SK3
 70
     0
 62
     1
  6
HIDDEN2
  0
LAYER
  2
SK4
 70
     0
 62
     2
  6
CENTER2
  0
ENDTAB
  0
TABLE
  2
STYLE
 70
     4
  0
STYLE
  2
STANDARD
 70
     0
 40
0.0
 41
1.0
 50
0.0
 71
     0
 42
2.5
  3
txt
  4

  0
STYLE
  2
SEACAD_SOLID_EDGE_ISO
 70
     0
 40
0.0
 41
1.0
 50
0.0
 71
     0
 42
0.2
  3
seiso.ttf
  4

  0
STYLE
  2
SEACAD_SOLID_EDGE_ISO1_SYM
 70
     0
 40
0.0
 41
1.0
 50
0.0
 71
     0
 42
0.2
  3
semeci1.ttf
  4

  0
STYLE
  2
SEACAD_SOLID_EDGE_ISOB
 70
     0
 40
0.0
 41
1.0
 50
0.0
 71
     0
 42
0.2
  3
seisobd.ttf
  4

  0
ENDTAB
  0
TABLE
  2
VIEW
 70
     0
  0
ENDTAB
  0
TABLE
  2
UCS
 70
     0
  0
ENDTAB
  0
TABLE
  2
APPID
 70
     1
  0
APPID
  2
ACAD
 70
     0
  0
ENDTAB
  0
TABLE
  2
DIMSTYLE
 70
     1
  0
DIMSTYLE
  2
ISO-25
 70
     0
  3

  4

  5

  6

  7

 40
1.0
 41
2.5
 42
0.625
 43
3.75
 44
1.25
 45
0.0
 46
0.0
 47
0.0
 48
0.0
140
2.5
141
2.5
142
0.0
143
0.0393700787
144
1.0
145
0.0
146
1.0
147
0.625
 71
     0
 72
     0
 73
     0
 74
     0
 75
     0
 76
     0
 77
     1
 78
     8
170
     0
171
     3
172
     1
173
     0
174
     0
175
     0
176
     0
177
     0
178
     0
  0
ENDTAB
  0
ENDSEC
  0
SECTION
  2
BLOCKS
  0
BLOCK
  8
0
  2
$MODEL_SPACE
 70
     0
 10
0.0
 20
0.0
 30
0.0
  3
$MODEL_SPACE
  1

  0
ENDBLK
  5
21
  8
0
  0
BLOCK
 67
     1
  8
0
  2
$PAPER_SPACE
 70
     0
 10
0.0
 20
0.0
 30
0.0
  3
$PAPER_SPACE
  1

  0
ENDBLK
  5
1D
 67
     1
  8
0
  0
BLOCK
  8
0
  2
SE
 70
     0
 10
0.0
 20
0.0
 30
0.0
  3
SE
  1

  0
LINE
  5
43
  8
SK1
  6
CONTINUOUS
 10
186.7400577994
 20
104.0036163505
 30
0.0
 11
185.5400577994
 21
104.0036163505
 31
0.0
  0
ARC
  5
44
  8
SK1
  6
CONTINUOUS
 10
186.7400577994
 20
131.0786163505
 30
0.0
 40
1.199999999999998
 50
180.0
 51
270.0
  0
LINE
  5
45
  8
SK1
  6
CONTINUOUS
 10
239.5400577994
 20
112.2536163505
 30
0.0
 11
239.5400577994
 21
104.0036163505
 31
0.0
  0
POLYLINE
  5
46
  8
SK1
  6
CONTINUOUS
 66
     1
 10
0.0
 20
0.0
 30
0.0
  0
VERTEX
  5
221
  8
SK1
  6
CONTINUOUS
 10
215.6547708835
 20
110.7535876528
 30
0.0
  0
VERTEX
  5
222
  8
SK1
  6
CONTINUOUS
 10
215.5890116952
 20
110.7014012025
 30
0.0
  0
VERTEX
  5
223
  8
SK1
  6
CONTINUOUS
 10
215.5214327977
 20
110.6480380443
 30
0.0
  0
VERTEX
  5
224
  8
SK1
  6
CONTINUOUS
 10
215.452077162
 20
110.5935609446
 30
0.0
  0
VERTEX
  5
225
  8
SK1
  6
CONTINUOUS
 10
215.3809877593
 20
110.5380326702
 30
0.0
  0
VERTEX
  5
226
  8
SK1
  6
CONTINUOUS
 10
215.3082075609
 20
110.4815159873
 30
0.0
  0
VERTEX
  5
227
  8
SK1
  6
CONTINUOUS
 10
215.2337795379
 20
110.4240736626
 30
0.0
  0
VERTEX
  5
228
  8
SK1
  6
CONTINUOUS
 10
215.1577466614
 20
110.3657684626
 30
0.0
  0
VERTEX
  5
229
  8
SK1
  6
CONTINUOUS
 10
215.0801519026
 20
110.3066631537
 30
0.0
  0
VERTEX
  5
22A
  8
SK1
  6
CONTINUOUS
 10
215.0010382328
 20
110.2468205026
 30
0.0
  0
VERTEX
  5
22B
  8
SK1
  6
CONTINUOUS
 10
214.920448623
 20
110.1863032756
 30
0.0
  0
VERTEX
  5
22C
  8
SK1
  6
CONTINUOUS
 10
214.8384260445
 20
110.1251742394
 30
0.0
  0
VERTEX
  5
22D
  8
SK1
  6
CONTINUOUS
 10
214.7550134683
 20
110.0634961604
 30
0.0
  0
VERTEX
  5
22E
  8
SK1
  6
CONTINUOUS
 10
214.6702534627
 20
110.0013308622
 30
0.0
  0
VERTEX
  5
22F
  8
SK1
  6
CONTINUOUS
 10
214.5841422703
 20
109.9386568317
 30
0.0
  0
VERTEX
  5
230
  8
SK1
  6
CONTINUOUS
 10
214.4966607199
 20
109.8754968124
 30
0.0
  0
VERTEX
  5
231
  8
SK1
  6
CONTINUOUS
 10
214.4078088115
 20
109.8119342927
 30
0.0
  0
VERTEX
  5
232
  8
SK1
  6
CONTINUOUS
 10
214.3175865451
 20
109.7480527612
 30
0.0
  0
VERTEX
  5
233
  8
SK1
  6
CONTINUOUS
 10
214.2259939208
 20
109.6839357064
 30
0.0
  0
VERTEX
  5
234
  8
SK1
  6
CONTINUOUS
 10
214.1330309384
 20
109.6196666167
 30
0.0
  0
VERTEX
  5
235
  8
SK1
  6
CONTINUOUS
 10
214.038697598
 20
109.5553289807
 30
0.0
  0
VERTEX
  5
236
  8
SK1
  6
CONTINUOUS
 10
213.9429938995
 20
109.4910062868
 30
0.0
  0
VERTEX
  5
237
  8
SK1
  6
CONTINUOUS
 10
213.8459198429
 20
109.4267820236
 30
0.0
  0
VERTEX
  5
238
  8
SK1
  6
CONTINUOUS
 10
213.7474754283
 20
109.3627396795
 30
0.0
  0
VERTEX
  5
239
  8
SK1
  6
CONTINUOUS
 10
213.6476606556
 20
109.2989627431
 30
0.0
  0
VERTEX
  5
23A
  8
SK1
  6
CONTINUOUS
 10
213.5464755247
 20
109.2355347028
 30
0.0
  0
VERTEX
  5
23B
  8
SK1
  6
CONTINUOUS
 10
213.4439200357
 20
109.1725390471
 30
0.0
  0
VERTEX
  5
23C
  8
SK1
  6
CONTINUOUS
 10
213.3399941885
 20
109.1100592646
 30
0.0
  0
VERTEX
  5
23D
  8
SK1
  6
CONTINUOUS
 10
213.2346979831
 20
109.0481788437
 30
0.0
  0
VERTEX
  5
23E
  8
SK1
  6
CONTINUOUS
 10
213.1280314195
 20
108.9869812729
 30
0.0
  0
VERTEX
  5
23F
  8
SK1
  6
CONTINUOUS
 10
213.0199944977
 20
108.9265500407
 30
0.0
  0
VERTEX
  5
240
  8
SK1
  6
CONTINUOUS
 10
212.9105872177
 20
108.8669686357
 30
0.0
  0
VERTEX
  5
241
  8
SK1
  6
CONTINUOUS
 10
212.7998095794
 20
108.8083205462
 30
0.0
  0
VERTEX
  5
242
  8
SK1
  6
CONTINUOUS
 10
212.6875557779
 20
108.7506967262
 30
0.0
  0
VERTEX
  5
243
  8
SK1
  6
CONTINUOUS
 10
212.5733728364
 20
108.6942598395
 30
0.0
  0
VERTEX
  5
244
  8
SK1
  6
CONTINUOUS
 10
212.4572894596
 20
108.6392031488
 30
0.0
  0
VERTEX
  5
245
  8
SK1
  6
CONTINUOUS
 10
212.3393991221
 20
108.5857189577
 30
0.0
  0
VERTEX
  5
246
  8
SK1
  6
CONTINUOUS
 10
212.2197952985
 20
108.5339995698
 30
0.0
  0
VERTEX
  5
247
  8
SK1
  6
CONTINUOUS
 10
212.0985714633
 20
108.4842372888
 30
0.0
  0
VERTEX
  5
248
  8
SK1
  6
CONTINUOUS
 10
211.9758210911
 20
108.4366244183
 30
0.0
  0
VERTEX
  5
249
  8
SK1
  6
CONTINUOUS
 10
211.8516376563
 20
108.391353262
 30
0.0
  0
VERTEX
  5
24A
  8
SK1
  6
CONTINUOUS
 10
211.7261146335
 20
108.3486161235
 30
0.0
  0
VERTEX
  5
24B
  8
SK1
  6
CONTINUOUS
 10
211.5993454972
 20
108.3086053065
 30
0.0
  0
VERTEX
  5
24C
  8
SK1
  6
CONTINUOUS
 10
211.471423722
 20
108.2715131145
 30
0.0
  0
VERTEX
  5
24D
  8
SK1
  6
CONTINUOUS
 10
211.3424427825
 20
108.2375318514
 30
0.0
  0
VERTEX
  5
24E
  8
SK1
  6
CONTINUOUS
 10
211.212496153
 20
108.2068538206
 30
0.0
  0
VERTEX
  5
24F
  8
SK1
  6
CONTINUOUS
 10
211.0816773082
 20
108.1796713258
 30
0.0
  0
VERTEX
  5
250
  8
SK1
  6
CONTINUOUS
 10
210.9500797226
 20
108.1561766707
 30
0.0
  0
VERTEX
  5
251
  8
SK1
  6
CONTINUOUS
 10
210.8177968708
 20
108.1365621589
 30
0.0
  0
VERTEX
  5
252
  8
SK1
  6
CONTINUOUS
 10
210.6849222272
 20
108.1210200941
 30
0.0
  0
VERTEX
  5
253
  8
SK1
  6
CONTINUOUS
 10
210.5515492664
 20
108.10974278
 30
0.0
  0
VERTEX
  5
254
  8
SK1
  6
CONTINUOUS
 10
210.417771463
 20
108.10292252
 30
0.0
  0
VERTEX
  5
255
  8
SK1
  6
CONTINUOUS
 10
210.2836823875
 20
108.1007516152
 30
0.0
  0
VERTEX
  5
256
  8
SK1
  6
CONTINUOUS
 10
210.1496158397
 20
108.1033486548
 30
0.0
  0
VERTEX
  5
257
  8
SK1
  6
CONTINUOUS
 10
210.0158858396
 20
108.1105764294
 30
0.0
  0
VERTEX
  5
258
  8
SK1
  6
CONTINUOUS
 10
209.8825840579
 20
108.122242657
 30
0.0
  0
VERTEX
  5
259
  8
SK1
  6
CONTINUOUS
 10
209.7498021654
 20
108.1381550556
 30
0.0
  0
VERTEX
  5
25A
  8
SK1
  6
CONTINUOUS
 10
209.6176318326
 20
108.1581213432
 30
0.0
  0
VERTEX
  5
25B
  8
SK1
  6
CONTINUOUS
 10
209.4861647302
 20
108.1819492377
 30
0.0
  0
VERTEX
  5
25C
  8
SK1
  6
CONTINUOUS
 10
209.3554925288
 20
108.2094464571
 30
0.0
  0
VERTEX
  5
25D
  8
SK1
  6
CONTINUOUS
 10
209.2257068991
 20
108.2404207195
 30
0.0
  0
VERTEX
  5
25E
  8
SK1
  6
CONTINUOUS
 10
209.0968995118
 20
108.2746797427
 30
0.0
  0
VERTEX
  5
25F
  8
SK1
  6
CONTINUOUS
 10
208.9691620375
 20
108.3120312447
 30
0.0
  0
VERTEX
  5
260
  8
SK1
  6
CONTINUOUS
 10
208.8425861468
 20
108.3522829436
 30
0.0
  0
VERTEX
  5
261
  8
SK1
  6
CONTINUOUS
 10
208.7172635104
 20
108.3952425572
 30
0.0
  0
VERTEX
  5
262
  8
SK1
  6
CONTINUOUS
 10
208.5932857989
 20
108.4407178037
 30
0.0
  0
VERTEX
  5
263
  8
SK1
  6
CONTINUOUS
 10
208.4707446831
 20
108.4885164008
 30
0.0
  0
VERTEX
  5
264
  8
SK1
  6
CONTINUOUS
 10
208.3497318335
 20
108.5384460667
 30
0.0
  0
VERTEX
  5
265
  8
SK1
  6
CONTINUOUS
 10
208.2303389208
 20
108.5903145193
 30
0.0
  0
VERTEX
  5
266
  8
SK1
  6
CONTINUOUS
 10
208.1126576156
 20
108.6439294766
 30
0.0
  0
VERTEX
  5
267
  8
SK1
  6
CONTINUOUS
 10
207.9967795886
 20
108.6990986565
 30
0.0
  0
VERTEX
  5
268
  8
SK1
  6
CONTINUOUS
 10
207.8827965105
 20
108.755629777
 30
0.0
  0
VERTEX
  5
269
  8
SK1
  6
CONTINUOUS
 10
207.770720295
 20
108.8133323463
 30
0.0
  0
VERTEX
  5
26A
  8
SK1
  6
CONTINUOUS
 10
207.6600788857
 20
108.8720645677
 30
0.0
  0
VERTEX
  5
26B
  8
SK1
  6
CONTINUOUS
 10
207.5507819437
 20
108.9317378967
 30
0.0
  0
VERTEX
  5
26C
  8
SK1
  6
CONTINUOUS
 10
207.44283326
 20
108.9922664927
 30
0.0
  0
VERTEX
  5
26D
  8
SK1
  6
CONTINUOUS
 10
207.3362366261
 20
109.0535645152
 30
0.0
  0
VERTEX
  5
26E
  8
SK1
  6
CONTINUOUS
 10
207.230995833
 20
109.1155461234
 30
0.0
  0
VERTEX
  5
26F
  8
SK1
  6
CONTINUOUS
 10
207.127114672
 20
109.1781254768
 30
0.0
  0
VERTEX
  5
270
  8
SK1
  6
CONTINUOUS
 10
207.0245969343
 20
109.2412167348
 30
0.0
  0
VERTEX
  5
271
  8
SK1
  6
CONTINUOUS
 10
206.9234464112
 20
109.3047340566
 30
0.0
  0
VERTEX
  5
272
  8
SK1
  6
CONTINUOUS
 10
206.8236668938
 20
109.3685916017
 30
0.0
  0
VERTEX
  5
273
  8
SK1
  6
CONTINUOUS
 10
206.7252621734
 20
109.4327035295
 30
0.0
  0
VERTEX
  5
274
  8
SK1
  6
CONTINUOUS
 10
206.6282360412
 20
109.4969839992
 30
0.0
  0
VERTEX
  5
275
  8
SK1
  6
CONTINUOUS
 10
206.5325922883
 20
109.5613471704
 30
0.0
  0
VERTEX
  5
276
  8
SK1
  6
CONTINUOUS
 10
206.4383347061
 20
109.6257072023
 30
0.0
  0
VERTEX
  5
277
  8
SK1
  6
CONTINUOUS
 10
206.3454670857
 20
109.6899782544
 30
0.0
  0
VERTEX
  5
278
  8
SK1
  6
CONTINUOUS
 10
206.2539932184
 20
109.7540744859
 30
0.0
  0
VERTEX
  5
279
  8
SK1
  6
CONTINUOUS
 10
206.1639168953
 20
109.8179100563
 30
0.0
  0
VERTEX
  5
27A
  8
SK1
  6
CONTINUOUS
 10
206.0752419078
 20
109.881399125
 30
0.0
  0
VERTEX
  5
27B
  8
SK1
  6
CONTINUOUS
 10
205.9879720469
 20
109.9444558512
 30
0.0
  0
VERTEX
  5
27C
  8
SK1
  6
CONTINUOUS
 10
205.902111104
 20
110.0069943945
 30
0.0
  0
VERTEX
  5
27D
  8
SK1
  6
CONTINUOUS
 10
205.8176104955
 20
110.0690178655
 30
0.0
  0
VERTEX
  5
27E
  8
SK1
  6
CONTINUOUS
 10
205.7344312538
 20
110.1305704501
 30
0.0
  0
VERTEX
  5
27F
  8
SK1
  6
CONTINUOUS
 10
205.6526192148
 20
110.191587509
 30
0.0
  0
VERTEX
  5
280
  8
SK1
  6
CONTINUOUS
 10
205.5722205696
 20
110.2520038806
 30
0.0
  0
VERTEX
  5
281
  8
SK1
  6
CONTINUOUS
 10
205.4932815089
 20
110.3117544033
 30
0.0
  0
VERTEX
  5
282
  8
SK1
  6
CONTINUOUS
 10
205.4158482239
 20
110.3707739155
 30
0.0
  0
VERTEX
  5
283
  8
SK1
  6
CONTINUOUS
 10
205.3399669054
 20
110.4289972558
 30
0.0
  0
VERTEX
  5
284
  8
SK1
  6
CONTINUOUS
 10
205.2656837444
 20
110.4863592625
 30
0.0
  0
VERTEX
  5
285
  8
SK1
  6
CONTINUOUS
 10
205.1930449318
 20
110.542794774
 30
0.0
  0
VERTEX
  5
286
  8
SK1
  6
CONTINUOUS
 10
205.1220966586
 20
110.5982386289
 30
0.0
  0
VERTEX
  5
287
  8
SK1
  6
CONTINUOUS
 10
205.0528851158
 20
110.6526256655
 30
0.0
  0
VERTEX
  5
288
  8
SK1
  6
CONTINUOUS
 10
204.9854564943
 20
110.7058907222
 30
0.0
  0
VERTEX
  5
289
  8
SK1
  6
CONTINUOUS
 10
204.919856985
 20
110.7579686376
 30
0.0
  0
SEQEND
  5
872
  8
SK1
  6
CONTINUOUS
  0
LINE
  5
47
  8
SK1
  6
CONTINUOUS
 10
149.2400577994
 20
91.9286163505
 30
0.0
 11
149.9900577994
 21
92.6786163505
 31
0.0
  0
LINE
  5
48
  8
SK1
  6
CONTINUOUS
 10
149.2400577994
 20
91.9286163505
 30
0.0
 11
162.941174746
 21
91.9286163505
 31
0.0
  0
ARC
  5
49
  8
SK1
  6
CONTINUOUS
 10
167.4614498765
 20
104.0043338972
 30
0.0
 40
12.07860794412976
 50
321.0102486488
 51
359.9965962636
  0
LINE
  5
4A
  8
SK1
  6
CONTINUOUS
 10
166.1900577994
 20
91.4786163505
 30
0.0
 11
166.7900577994
 21
90.439385866
 31
0.0
  0
LINE
  5
4B
  8
SK1
  6
CONTINUOUS
 10
173.0900577994
 20
90.5176472494
 30
0.0
 11
173.6900577994
 21
92.7568777339
 31
0.0
  0
LINE
  5
4C
  8
SK1
  6
CONTINUOUS
 10
148.0400577994
 20
90.7286163505
 30
0.0
 11
148.0400577994
 21
100.9120963299
 31
0.0
  0
LINE
  5
4D
  8
SK1
  6
CONTINUOUS
 10
167.4650577994
 20
91.9286163505
 30
0.0
 11
165.9302501782
 21
91.9286163505
 31
0.0
  0
POLYLINE
  5
4E
  8
SK1
  6
CONTINUOUS
 66
     1
 10
0.0
 20
0.0
 30
0.0
  0
VERTEX
  5
28A
  8
SK1
  6
CONTINUOUS
 10
148.0400577994
 20
100.9120963299
 30
0.0
  0
VERTEX
  5
28B
  8
SK1
  6
CONTINUOUS
 10
148.0400518864
 20
100.955028071
 30
0.0
  0
VERTEX
  5
28C
  8
SK1
  6
CONTINUOUS
 10
148.0400344121
 20
100.9979602873
 30
0.0
  0
VERTEX
  5
28D
  8
SK1
  6
CONTINUOUS
 10
148.0400057734
 20
101.0408929624
 30
0.0
  0
VERTEX
  5
28E
  8
SK1
  6
CONTINUOUS
 10
148.0399663672
 20
101.08382608
 30
0.0
  0
VERTEX
  5
28F
  8
SK1
  6
CONTINUOUS
 10
148.0399165903
 20
101.1267596237
 30
0.0
  0
VERTEX
  5
290
  8
SK1
  6
CONTINUOUS
 10
148.0398568397
 20
101.1696935774
 30
0.0
  0
VERTEX
  5
291
  8
SK1
  6
CONTINUOUS
 10
148.0397875122
 20
101.2126279246
 30
0.0
  0
VERTEX
  5
292
  8
SK1
  6
CONTINUOUS
 10
148.0397090048
 20
101.2555626491
 30
0.0
  0
VERTEX
  5
293
  8
SK1
  6
CONTINUOUS
 10
148.0396217143
 20
101.2984977346
 30
0.0
  0
VERTEX
  5
294
  8
SK1
  6
CONTINUOUS
 10
148.0395260376
 20
101.3414331647
 30
0.0
  0
VERTEX
  5
295
  8
SK1
  6
CONTINUOUS
 10
148.0394223717
 20
101.3843689231
 30
0.0
  0
VERTEX
  5
296
  8
SK1
  6
CONTINUOUS
 10
148.0393111133
 20
101.4273049935
 30
0.0
  0
VERTEX
  5
297
  8
SK1
  6
CONTINUOUS
 10
148.0391926595
 20
101.4702413597
 30
0.0
  0
VERTEX
  5
298
  8
SK1
  6
CONTINUOUS
 10
148.0390674071
 20
101.5131780052
 30
0.0
  0
VERTEX
  5
299
  8
SK1
  6
CONTINUOUS
 10
148.0389357531
 20
101.5561149138
 30
0.0
  0
VERTEX
  5
29A
  8
SK1
  6
CONTINUOUS
 10
148.0387980942
 20
101.5990520692
 30
0.0
  0
VERTEX
  5
29B
  8
SK1
  6
CONTINUOUS
 10
148.0386548274
 20
101.6419894551
 30
0.0
  0
VERTEX
  5
29C
  8
SK1
  6
CONTINUOUS
 10
148.0385063496
 20
101.6849270551
 30
0.0
  0
VERTEX
  5
29D
  8
SK1
  6
CONTINUOUS
 10
148.0383530576
 20
101.727864853
 30
0.0
  0
VERTEX
  5
29E
  8
SK1
  6
CONTINUOUS
 10
148.0381953485
 20
101.7708028324
 30
0.0
  0
VERTEX
  5
29F
  8
SK1
  6
CONTINUOUS
 10
148.038033619
 20
101.813740977
 30
0.0
  0
VERTEX
  5
2A0
  8
SK1
  6
CONTINUOUS
 10
148.037868266
 20
101.8566792705
 30
0.0
  0
VERTEX
  5
2A1
  8
SK1
  6
CONTINUOUS
 10
148.0376996866
 20
101.8996176966
 30
0.0
  0
VERTEX
  5
2A2
  8
SK1
  6
CONTINUOUS
 10
148.0375282774
 20
101.9425562391
 30
0.0
  0
VERTEX
  5
2A3
  8
SK1
  6
CONTINUOUS
 10
148.0373544356
 20
101.9854948814
 30
0.0
  0
VERTEX
  5
2A4
  8
SK1
  6
CONTINUOUS
 10
148.0371785578
 20
102.0284336075
 30
0.0
  0
VERTEX
  5
2A5
  8
SK1
  6
CONTINUOUS
 10
148.0370010411
 20
102.0713724009
 30
0.0
  0
VERTEX
  5
2A6
  8
SK1
  6
CONTINUOUS
 10
148.0368222824
 20
102.1143112454
 30
0.0
  0
VERTEX
  5
2A7
  8
SK1
  6
CONTINUOUS
 10
148.0366426784
 20
102.1572501245
 30
0.0
  0
VERTEX
  5
2A8
  8
SK1
  6
CONTINUOUS
 10
148.0364626262
 20
102.2001890222
 30
0.0
  0
VERTEX
  5
2A9
  8
SK1
  6
CONTINUOUS
 10
148.0362825225
 20
102.2431279219
 30
0.0
  0
VERTEX
  5
2AA
  8
SK1
  6
CONTINUOUS
 10
148.0361027644
 20
102.2860668074
 30
0.0
  0
VERTEX
  5
2AB
  8
SK1
  6
CONTINUOUS
 10
148.0359237487
 20
102.3290056624
 30
0.0
  0
VERTEX
  5
2AC
  8
SK1
  6
CONTINUOUS
 10
148.0357458723
 20
102.3719444706
 30
0.0
  0
VERTEX
  5
2AD
  8
SK1
  6
CONTINUOUS
 10
148.035569532
 20
102.4148832157
 30
0.0
  0
VERTEX
  5
2AE
  8
SK1
  6
CONTINUOUS
 10
148.0353951249
 20
102.4578218813
 30
0.0
  0
VERTEX
  5
2AF
  8
SK1
  6
CONTINUOUS
 10
148.0352227316
 20
102.5007604983
 30
0.0
  0
VERTEX
  5
2B0
  8
SK1
  6
CONTINUOUS
 10
148.0350523038
 20
102.5436991094
 30
0.0
  0
VERTEX
  5
2B1
  8
SK1
  6
CONTINUOUS
 10
148.0348840446
 20
102.586637716
 30
0.0
  0
VERTEX
  5
2B2
  8
SK1
  6
CONTINUOUS
 10
148.0347181569
 20
102.6295763195
 30
0.0
  0
VERTEX
  5
2B3
  8
SK1
  6
CONTINUOUS
 10
148.034554844
 20
102.6725149213
 30
0.0
  0
VERTEX
  5
2B4
  8
SK1
  6
CONTINUOUS
 10
148.0343943089
 20
102.7154535229
 30
0.0
  0
VERTEX
  5
2B5
  8
SK1
  6
CONTINUOUS
 10
148.0342367547
 20
102.7583921256
 30
0.0
  0
VERTEX
  5
2B6
  8
SK1
  6
CONTINUOUS
 10
148.0340823844
 20
102.8013307309
 30
0.0
  0
VERTEX
  5
2B7
  8
SK1
  6
CONTINUOUS
 10
148.0339314012
 20
102.8442693402
 30
0.0
  0
VERTEX
  5
2B8
  8
SK1
  6
CONTINUOUS
 10
148.033784008
 20
102.8872079549
 30
0.0
  0
VERTEX
  5
2B9
  8
SK1
  6
CONTINUOUS
 10
148.0336404081
 20
102.9301465763
 30
0.0
  0
VERTEX
  5
2BA
  8
SK1
  6
CONTINUOUS
 10
148.0335008044
 20
102.973085206
 30
0.0
  0
VERTEX
  5
2BB
  8
SK1
  6
CONTINUOUS
 10
148.0333654001
 20
103.0160238454
 30
0.0
  0
VERTEX
  5
2BC
  8
SK1
  6
CONTINUOUS
 10
148.0332343982
 20
103.0589624958
 30
0.0
  0
VERTEX
  5
2BD
  8
SK1
  6
CONTINUOUS
 10
148.0331080019
 20
103.1019011587
 30
0.0
  0
VERTEX
  5
2BE
  8
SK1
  6
CONTINUOUS
 10
148.0329864141
 20
103.1448398354
 30
0.0
  0
VERTEX
  5
2BF
  8
SK1
  6
CONTINUOUS
 10
148.032869838
 20
103.1877785275
 30
0.0
  0
VERTEX
  5
2C0
  8
SK1
  6
CONTINUOUS
 10
148.0327584766
 20
103.2307172363
 30
0.0
  0
VERTEX
  5
2C1
  8
SK1
  6
CONTINUOUS
 10
148.032652442
 20
103.27365596
 30
0.0
  0
VERTEX
  5
2C2
  8
SK1
  6
CONTINUOUS
 10
148.0325517791
 20
103.3165946963
 30
0.0
  0
VERTEX
  5
2C3
  8
SK1
  6
CONTINUOUS
 10
148.0324565902
 20
103.3595334453
 30
0.0
  0
VERTEX
  5
2C4
  8
SK1
  6
CONTINUOUS
 10
148.032366978
 20
103.4024722073
 30
0.0
  0
VERTEX
  5
2C5
  8
SK1
  6
CONTINUOUS
 10
148.0322830449
 20
103.4454109824
 30
0.0
  0
VERTEX
  5
2C6
  8
SK1
  6
CONTINUOUS
 10
148.0322048933
 20
103.4883497711
 30
0.0
  0
VERTEX
  5
2C7
  8
SK1
  6
CONTINUOUS
 10
148.0321326257
 20
103.5312885734
 30
0.0
  0
VERTEX
  5
2C8
  8
SK1
  6
CONTINUOUS
 10
148.0320663447
 20
103.5742273896
 30
0.0
  0
VERTEX
  5
2C9
  8
SK1
  6
CONTINUOUS
 10
148.0320061526
 20
103.6171662199
 30
0.0
  0
VERTEX
  5
2CA
  8
SK1
  6
CONTINUOUS
 10
148.0319521407
 20
103.6600420089
 30
0.0
  0
VERTEX
  5
2CB
  8
SK1
  6
CONTINUOUS
 10
148.0319043549
 20
103.7028232286
 30
0.0
  0
VERTEX
  5
2CC
  8
SK1
  6
CONTINUOUS
 10
148.0318628294
 20
103.745557171
 30
0.0
  0
VERTEX
  5
2CD
  8
SK1
  6
CONTINUOUS
 10
148.0318275984
 20
103.788291128
 30
0.0
  0
VERTEX
  5
2CE
  8
SK1
  6
CONTINUOUS
 10
148.0317986963
 20
103.8310723916
 30
0.0
  0
VERTEX
  5
2CF
  8
SK1
  6
CONTINUOUS
 10
148.0317761572
 20
103.8739482537
 30
0.0
  0
VERTEX
  5
2D0
  8
SK1
  6
CONTINUOUS
 10
148.0317600154
 20
103.9169660063
 30
0.0
  0
VERTEX
  5
2D1
  8
SK1
  6
CONTINUOUS
 10
148.0317503053
 20
103.9601729412
 30
0.0
  0
VERTEX
  5
2D2
  8
SK1
  6
CONTINUOUS
 10
148.0317470609
 20
104.0036163505
 30
0.0
  0
SEQEND
  5
871
  8
SK1
  6
CONTINUOUS
  0
ARC
  5
4F
  8
SK1
  6
CONTINUOUS
 10
167.4650577994
 20
104.0036163505
 30
0.0
 40
12.07500000000001
 50
270.0
 51
302.6486488035
  0
LINE
  5
50
  8
SK1
  6
CONTINUOUS
 10
149.2400577994
 20
91.9286163505
 30
0.0
 11
148.267164061
 21
90.9557226122
 31
0.0
  0
LINE
  5
51
  8
SK1
  6
CONTINUOUS
 10
149.2400577994
 20
90.9703159502
 30
0.0
 11
149.2400577994
 21
91.9286163505
 31
0.0
  0
LINE
  5
52
  8
SK1
  6
CONTINUOUS
 10
60.4400577994
 20
116.5286163505
 30
0.0
 11
60.4400577994
 21
104.0036163505
 31
0.0
  0
LINE
  5
53
  8
SK1
  6
CONTINUOUS
 10
62.5888077994
 20
104.0036163505
 30
0.0
 11
62.5888077994
 21
114.3798663505
 31
0.0
  0
LINE
  5
54
  8
SK1
  6
CONTINUOUS
 10
166.1900577994
 20
91.4786163505
 30
0.0
 11
165.9302501782
 21
91.9286163505
 31
0.0
  0
LINE
  5
55
  8
SK1
  6
CONTINUOUS
 10
165.9302501782
 20
91.9286163505
 30
0.0
 11
162.941174746
 21
91.9286163505
 31
0.0
  0
LINE
  5
56
  8
SK1
  6
CONTINUOUS
 10
162.941174746
 20
91.9286163505
 30
0.0
 11
162.3926464054
 21
90.9703159502
 31
0.0
  0
LINE
  5
57
  8
SK1
  6
CONTINUOUS
 10
162.3926464054
 20
90.9703159502
 30
0.0
 11
149.2400577994
 21
90.9703159502
 31
0.0
  0
LINE
  5
58
  8
SK1
  6
CONTINUOUS
 10
148.267164061
 20
90.9557226122
 30
0.0
 11
148.0400577994
 21
90.7286163505
 31
0.0
  0
LINE
  5
59
  8
SK1
  6
CONTINUOUS
 10
149.2400577994
 20
90.9703159502
 30
0.0
 11
148.267164061
 21
90.9557226122
 31
0.0
  0
LINE
  5
5A
  8
SK1
  6
CONTINUOUS
 10
148.0400577994
 20
90.7286163505
 30
0.0
 11
148.0400577994
 21
57.9536163505
 31
0.0
  0
LINE
  5
5B
  8
SK1
  6
CONTINUOUS
 10
166.1900577994
 20
91.4786163505
 30
0.0
 11
166.1900577994
 21
63.3309258221
 31
0.0
  0
LINE
  5
5C
  8
SK1
  6
CONTINUOUS
 10
162.3926464054
 20
56.7536163505
 30
0.0
 11
162.3926464054
 21
90.9703159502
 31
0.0
  0
LINE
  5
5D
  8
SK1
  6
CONTINUOUS
 10
149.2400577994
 20
56.7536163505
 30
0.0
 11
149.2400577994
 21
90.9703159502
 31
0.0
  0
LINE
  5
5E
  8
SK1
  6
CONTINUOUS
 10
173.6900577994
 20
92.7568777339
 30
0.0
 11
173.9793500625
 21
93.8365311581
 31
0.0
  0
ARC
  5
5F
  8
SK1
  6
CONTINUOUS
 10
167.4571156925
 20
104.0141493224
 30
0.0
 40
12.08815340223905
 50
302.6534114854
 51
320.9870133667
  0
ARC
  5
60
  8
SK1
  6
CONTINUOUS
 10
248.9891739858
 20
142.6656870836
 30
0.0
 40
85.69824879367414
 50
212.6708776988
 51
213.4525466977
  0
ARC
  5
61
  8
SK1
  6
CONTINUOUS
 10
166.8941329533
 20
103.9870433989
 30
0.0
 40
13.62093294372936
 50
321.0527222618
 51
0.069713317
  0
LINE
  5
62
  8
SK1
  6
CONTINUOUS
 10
173.6900577994
 20
92.7568777339
 30
0.0
 11
173.6900577994
 21
63.3309258221
 31
0.0
  0
LINE
  5
63
  8
SK1
  6
CONTINUOUS
 10
177.4874691933
 20
56.7536163592
 30
0.0
 11
177.4874691933
 21
95.424856671
 31
0.0
  0
LINE
  5
64
  8
SK1
  6
CONTINUOUS
 10
184.3400577994
 20
104.0036163505
 30
0.0
 11
184.3400577994
 21
56.7536163505
 31
0.0
  0
LINE
  5
65
  8
SK1
  6
CONTINUOUS
 10
185.5400577994
 20
104.0036163505
 30
0.0
 11
185.5400577994
 21
57.9536163505
 31
0.0
  0
LINE
  5
66
  8
SK1
  6
CONTINUOUS
 10
46.9400577994
 20
118.2536163505
 30
0.0
 11
46.9400577994
 21
104.0036163505
 31
0.0
  0
LINE
  5
67
  8
SK1
  6
CONTINUOUS
 10
46.9400577994
 20
104.0036163505
 30
0.0
 11
46.9400577994
 21
86.1819058314
 31
0.0
  0
LINE
  5
68
  8
SK1
  6
CONTINUOUS
 10
144.8814049536
 20
104.0036163505
 30
0.0
 11
144.8814049536
 21
70.6017535776
 31
0.0
  0
ARC
  5
69
  8
SK1
  6
CONTINUOUS
 10
210.2900577994
 20
163.0511700265
 30
0.0
 40
34.37176628261046
 50
254.8205636633
 51
266.4106622485
  0
ARC
  5
6A
  8
SK1
  6
CONTINUOUS
 10
210.2900577994
 20
163.0511700265
 30
0.0
 40
34.37176628261046
 50
273.5316181622
 51
285.1794363367
  0
LINE
  5
6B
  8
SK1
  6
CONTINUOUS
 10
205.7900577994
 20
82.5536163505
 30
0.0
 11
214.7900577994
 21
82.5536163505
 31
0.0
  0
LINE
  5
6C
  8
SK1
  6
CONTINUOUS
 10
205.7900577994
 20
82.5536163505
 30
0.0
 11
201.3650577994
 21
78.1286163505
 31
0.0
  0
LINE
  5
6D
  8
SK1
  6
CONTINUOUS
 10
214.7900577994
 20
82.5536163505
 30
0.0
 11
219.2150577994
 21
78.1286163505
 31
0.0
  0
LINE
  5
6E
  8
SK1
  6
CONTINUOUS
 10
239.5400577994
 20
104.0036163505
 30
0.0
 11
239.5400577994
 21
86.2092217417
 31
0.0
  0
LINE
  5
6F
  8
SK1
  6
CONTINUOUS
 10
180.2900577994
 20
111.8786163505
 30
0.0
 11
180.2900577994
 21
104.0036163505
 31
0.0
  0
LINE
  5
70
  8
SK1
  6
CONTINUOUS
 10
180.6650577994
 20
111.5036163505
 30
0.0
 11
180.6650577994
 21
104.0036163505
 31
0.0
  0
LINE
  5
71
  8
SK1
  6
CONTINUOUS
 10
180.1429604227
 20
111.8786163505
 30
0.0
 11
180.1429604227
 21
104.0036163505
 31
0.0
  0
LINE
  5
72
  8
SK1
  6
CONTINUOUS
 10
178.6400577994
 20
104.0036163505
 30
0.0
 11
178.6400577994
 21
114.3798663505
 31
0.0
  0
LINE
  5
73
  8
SK1
  6
CONTINUOUS
 10
179.5400577994
 20
104.0036163505
 30
0.0
 11
180.5150558147
 21
104.0036163505
 31
0.0
  0
LINE
  5
74
  8
SK1
  6
CONTINUOUS
 10
179.5400577994
 20
104.0036163505
 30
0.0
 11
178.7900577994
 21
104.0036163505
 31
0.0
  0
LINE
  5
75
  8
SK1
  6
CONTINUOUS
 10
148.0317470609
 20
104.0036163505
 30
0.0
 11
178.7900577994
 21
104.0036163505
 31
0.0
  0
LINE
  5
76
  8
SK1
  6
CONTINUOUS
 10
146.4296336274
 20
104.0036163505
 30
0.0
 11
148.0317470609
 21
104.0036163505
 31
0.0
  0
LINE
  5
77
  8
SK1
  6
CONTINUOUS
 10
144.8814049536
 20
104.0036163505
 30
0.0
 11
146.4296336274
 21
104.0036163505
 31
0.0
  0
LINE
  5
78
  8
SK1
  6
CONTINUOUS
 10
48.2235986247
 20
104.0036163505
 30
0.0
 11
144.8814049536
 21
104.0036163505
 31
0.0
  0
LINE
  5
79
  8
SK1
  6
CONTINUOUS
 10
46.9400577994
 20
104.0036163505
 30
0.0
 11
48.2235986247
 21
104.0036163505
 31
0.0
  0
LINE
  5
7A
  8
SK1
  6
CONTINUOUS
 10
239.5400577994
 20
104.0036163505
 30
0.0
 11
238.673985192
 21
104.0036163505
 31
0.0
  0
LINE
  5
7B
  8
SK1
  6
CONTINUOUS
 10
238.673985192
 20
104.0036163505
 30
0.0
 11
224.5618313894
 21
104.0036163505
 31
0.0
  0
LINE
  5
7C
  8
SK1
  6
CONTINUOUS
 10
184.3400577994
 20
104.0036163505
 30
0.0
 11
185.5400577994
 21
104.0036163505
 31
0.0
  0
LINE
  5
7D
  8
SK1
  6
CONTINUOUS
 10
224.5618313894
 20
104.0036163505
 30
0.0
 11
223.9279039968
 21
104.0036163505
 31
0.0
  0
LINE
  5
7E
  8
SK1
  6
CONTINUOUS
 10
223.9279039968
 20
104.0036163505
 30
0.0
 11
186.7400577994
 21
104.0036163505
 31
0.0
  0
LINE
  5
7F
  8
SK1
  6
CONTINUOUS
 10
223.9279039968
 20
129.8786163505
 30
0.0
 11
219.2900577994
 21
129.8786163505
 31
0.0
  0
LINE
  5
80
  8
SK1
  6
CONTINUOUS
 10
219.2900577994
 20
129.8786163505
 30
0.0
 11
217.4525577994
 21
128.0411163505
 31
0.0
  0
LINE
  5
81
  8
SK1
  6
CONTINUOUS
 10
217.4900577994
 20
111.5036163505
 30
0.0
 11
238.7900577994
 21
111.5036163505
 31
0.0
  0
ARC
  5
82
  8
SK1
  6
CONTINUOUS
 10
238.7900577994
 20
112.2536163505
 30
0.0
 40
0.7500000000000007
 50
270.0
 51
0.0
  0
ARC
  5
83
  8
SK1
  6
CONTINUOUS
 10
223.9279039968
 20
128.3786163505
 30
0.0
 40
1.499999999999999
 50
65.0
 51
90.0
  0
LINE
  5
84
  8
SK1
  6
CONTINUOUS
 10
238.673985192
 20
123.1574726399
 30
0.0
 11
224.5618313894
 21
129.7380780311
 31
0.0
  0
ARC
  5
85
  8
SK1
  6
CONTINUOUS
 10
238.0400577994
 20
121.7980109593
 30
0.0
 40
1.500000000000001
 50
0.0
 51
65.0
  0
LINE
  5
86
  8
SK1
  6
CONTINUOUS
 10
239.5400577994
 20
112.2536163505
 30
0.0
 11
239.5400577994
 21
121.7980109593
 31
0.0
  0
LINE
  5
87
  8
SK1
  6
CONTINUOUS
 10
178.6400577994
 20
114.3798663505
 30
0.0
 11
180.1429604227
 21
111.8786163505
 31
0.0
  0
LINE
  5
88
  8
SK1
  6
CONTINUOUS
 10
91.6400577994
 20
114.3798663505
 30
0.0
 11
178.6400577994
 21
114.3798663505
 31
0.0
  0
LINE
  5
89
  8
SK1
  6
CONTINUOUS
 10
180.1429604227
 20
111.8786163505
 30
0.0
 11
180.2900577994
 21
111.8786163505
 31
0.0
  0
LINE
  5
8A
  8
SK1
  6
CONTINUOUS
 10
62.5888077994
 20
114.3798663505
 30
0.0
 11
91.6400577994
 21
114.3798663505
 31
0.0
  0
LINE
  5
8B
  8
SK1
  6
CONTINUOUS
 10
60.4400577994
 20
116.5286163505
 30
0.0
 11
62.5888077994
 21
114.3798663505
 31
0.0
  0
LINE
  5
8C
  8
SK1
  6
CONTINUOUS
 10
60.4400577994
 20
116.5286163505
 30
0.0
 11
60.4400577994
 21
116.7536163505
 31
0.0
  0
LINE
  5
8D
  8
SK1
  6
CONTINUOUS
 10
60.4400577994
 20
116.7536163505
 30
0.0
 11
48.4400577994
 21
116.7536163505
 31
0.0
  0
ARC
  5
8E
  8
SK1
  6
CONTINUOUS
 10
48.4400577994
 20
118.2536163505
 30
0.0
 40
1.500000000000001
 50
180.0
 51
270.0
  0
LINE
  5
8F
  8
SK1
  6
CONTINUOUS
 10
46.9400577994
 20
118.2536163505
 30
0.0
 11
46.9400577994
 21
121.8253268696
 31
0.0
  0
ARC
  5
90
  8
SK1
  6
CONTINUOUS
 10
48.4400577994
 20
121.8253268696
 30
0.0
 40
1.500000000000001
 50
98.2971
 51
180.0
  0
LINE
  5
91
  8
SK1
  6
CONTINUOUS
 10
48.2235986247
 20
123.3096265111
 30
0.0
 11
144.8814049536
 21
137.4054791234
 31
0.0
  0
LINE
  5
92
  8
SK1
  6
CONTINUOUS
 10
144.8814049536
 20
137.4054791234
 30
0.0
 11
146.4296336274
 21
136.8419699703
 31
0.0
  0
ARC
  5
93
  8
SK1
  6
CONTINUOUS
 10
146.8400577994
 20
137.9696011153
 30
0.0
 40
1.2
 50
250.0
 51
0.0
  0
LINE
  5
94
  8
SK1
  6
CONTINUOUS
 10
180.2900577994
 20
111.8786163505
 30
0.0
 11
180.6650577994
 21
111.5036163505
 31
0.0
  0
LINE
  5
95
  8
SK1
  6
CONTINUOUS
 10
148.0400577994
 20
137.9696011153
 30
0.0
 11
148.0400577994
 21
150.0536163505
 31
0.0
  0
LINE
  5
96
  8
SK1
  6
CONTINUOUS
 10
180.6650577994
 20
111.5036163505
 30
0.0
 11
203.0900577994
 21
111.5036163505
 31
0.0
  0
LINE
  5
97
  8
SK1
  6
CONTINUOUS
 10
149.2400577994
 20
151.2536163505
 30
0.0
 11
148.0400577994
 21
150.0536163505
 31
0.0
  0
LINE
  5
98
  8
SK1
  6
CONTINUOUS
 10
162.3926464054
 20
151.2536163505
 30
0.0
 11
149.2400577994
 21
151.2536163505
 31
0.0
  0
LINE
  5
99
  8
SK1
  6
CONTINUOUS
 10
166.1900577994
 20
144.6763068789
 30
0.0
 11
162.3926464054
 21
151.2536163505
 31
0.0
  0
LINE
  5
9A
  8
SK1
  6
CONTINUOUS
 10
166.1900577994
 20
144.6763068789
 30
0.0
 11
166.1900577994
 21
144.3536163505
 31
0.0
  0
ARC
  5
9B
  8
SK1
  6
CONTINUOUS
 10
166.7900577994
 20
144.3536163505
 30
0.0
 40
0.6000000000000015
 50
180.0
 51
270.0
  0
LINE
  5
9C
  8
SK1
  6
CONTINUOUS
 10
166.7900577994
 20
143.7536163505
 30
0.0
 11
173.0900577994
 21
143.7536163505
 31
0.0
  0
LINE
  5
9D
  8
SK1
  6
CONTINUOUS
 10
203.1275577994
 20
128.0411163505
 30
0.0
 11
201.2900577994
 21
129.8786163505
 31
0.0
  0
ARC
  5
9E
  8
SK1
  6
CONTINUOUS
 10
173.0900577994
 20
144.3536163505
 30
0.0
 40
0.600000000000012
 50
270.0
 51
0.0
  0
LINE
  5
9F
  8
SK1
  6
CONTINUOUS
 10
173.6900577994
 20
144.3536163505
 30
0.0
 11
173.6900577994
 21
144.6763068789
 31
0.0
  0
LINE
  5
A0
  8
SK1
  6
CONTINUOUS
 10
173.6900577994
 20
144.6763068789
 30
0.0
 11
177.4874691933
 21
151.2536163505
 31
0.0
  0
LINE
  5
A1
  8
SK1
  6
CONTINUOUS
 10
177.4874691933
 20
151.2536163505
 30
0.0
 11
184.3400577994
 21
151.2536163505
 31
0.0
  0
LINE
  5
A2
  8
SK1
  6
CONTINUOUS
 10
184.3400577994
 20
151.2536163505
 30
0.0
 11
185.5400577994
 21
150.0536163505
 31
0.0
  0
LINE
  5
A3
  8
SK1
  6
CONTINUOUS
 10
185.5400577994
 20
150.0536163505
 30
0.0
 11
185.5400577994
 21
131.0786163505
 31
0.0
  0
LINE
  5
A4
  8
SK1
  6
CONTINUOUS
 10
201.2900577994
 20
129.8786163505
 30
0.0
 11
186.7400577994
 21
129.8786163505
 31
0.0
  0
LINE
  5
A5
  8
SK1
  6
CONTINUOUS
 10
180.5150558147
 20
104.0036163505
 30
0.0
 11
184.3400577994
 21
104.0036163505
 31
0.0
  0
LINE
  5
A6
  8
SK1
  6
CONTINUOUS
 10
177.4874691933
 20
56.7536163505
 30
0.0
 11
184.3400577994
 21
56.7536163505
 31
0.0
  0
ARC
  5
A7
  8
SK1
  6
CONTINUOUS
 10
48.4400577994
 20
86.1819058314
 30
0.0
 40
1.500000000000001
 50
180.0
 51
261.7029
  0
LINE
  5
A8
  8
SK1
  6
CONTINUOUS
 10
48.2235986247
 20
84.6976061899
 30
0.0
 11
144.8814049536
 21
70.6017535776
 31
0.0
  0
LINE
  5
A9
  8
SK1
  6
CONTINUOUS
 10
144.8814049536
 20
70.6017535776
 30
0.0
 11
146.4296336274
 21
71.1652627307
 31
0.0
  0
ARC
  5
AA
  8
SK1
  6
CONTINUOUS
 10
146.8400577994
 20
70.0376315858
 30
0.0
 40
1.2
 50
0.0
 51
110.0
  0
LINE
  5
AB
  8
SK1
  6
CONTINUOUS
 10
148.0400577994
 20
57.9536163505
 30
0.0
 11
149.2400577994
 21
56.7536163505
 31
0.0
  0
LINE
  5
AC
  8
SK1
  6
CONTINUOUS
 10
149.2400577994
 20
56.7536163505
 30
0.0
 11
162.3926464054
 21
56.7536163505
 31
0.0
  0
LINE
  5
AD
  8
SK1
  6
CONTINUOUS
 10
162.3926464054
 20
56.7536163505
 30
0.0
 11
166.1900577994
 21
63.3309258221
 31
0.0
  0
ARC
  5
AE
  8
SK1
  6
CONTINUOUS
 10
166.7900577994
 20
63.6536163505
 30
0.0
 40
0.5999999999999963
 50
90.0
 51
180.0
  0
LINE
  5
AF
  8
SK1
  6
CONTINUOUS
 10
166.7900577994
 20
64.2536163505
 30
0.0
 11
173.0900577994
 21
64.2536163505
 31
0.0
  0
ARC
  5
B0
  8
SK1
  6
CONTINUOUS
 10
173.0900577994
 20
63.6536163505
 30
0.0
 40
0.6000000000000015
 50
0.0
 51
90.0
  0
LINE
  5
B1
  8
SK1
  6
CONTINUOUS
 10
173.6900577994
 20
63.3309258221
 30
0.0
 11
177.4874691933
 21
56.7536163505
 31
0.0
  0
LINE
  5
B2
  8
SK1
  6
CONTINUOUS
 10
184.3400577994
 20
56.7536163505
 30
0.0
 11
185.5400577994
 21
57.9536163505
 31
0.0
  0
ARC
  5
B3
  8
SK1
  6
CONTINUOUS
 10
223.9279039968
 20
79.6286163505
 30
0.0
 40
1.500000000000001
 50
270.0
 51
295.0
  0
LINE
  5
B4
  8
SK1
  6
CONTINUOUS
 10
219.2150577994
 20
78.1286163505
 30
0.0
 11
223.9279039968
 21
78.1286163505
 31
0.0
  0
LINE
  5
B5
  8
SK1
  6
CONTINUOUS
 10
186.7400577994
 20
78.1286163505
 30
0.0
 11
201.3650577994
 21
78.1286163505
 31
0.0
  0
LINE
  5
B6
  8
SK1
  6
CONTINUOUS
 10
224.5618313894
 20
78.26915467
 30
0.0
 11
238.673985192
 21
84.8497600612
 31
0.0
  0
ARC
  5
B7
  8
SK1
  6
CONTINUOUS
 10
238.0400577994
 20
86.2092217417
 30
0.0
 40
1.499999999999999
 50
295.0
 51
0.0
  0
ARC
  5
B8
  8
SK1
  6
CONTINUOUS
 10
186.7400577994
 20
76.9286163505
 30
0.0
 40
1.199999999999998
 50
90.0
 51
180.0
  0
LINE
  5
B9
  8
SK1
  6
CONTINUOUS
 10
60.9650577994
 20
116.0036163505
 30
0.0
 11
91.6400577994
 21
116.0036163505
 31
0.0
  0
LINE
  5
BA
  8
SK1
  6
CONTINUOUS
 10
91.6400577994
 20
104.0036163505
 30
0.0
 11
91.6400577994
 21
116.0036163505
 31
0.0
  0
LINE
  5
BB
  8
SK2
  6
CONTINUOUS
 62
     7
 10
49.5678064433
 20
123.5056557405
 30
0.0
 11
46.9400577994
 21
120.8779070965
 31
0.0
  0
LINE
  5
BC
  8
SK2
  6
CONTINUOUS
 62
     7
 10
56.6054583757
 20
124.5319743396
 30
0.0
 11
48.8678911327
 21
116.7944070965
 31
0.0
  0
LINE
  5
BD
  8
SK2
  6
CONTINUOUS
 62
     7
 10
63.643110308
 20
125.5582929386
 30
0.0
 11
54.879224466
 21
116.7944070965
 31
0.0
  0
LINE
  5
BE
  8
SK2
  6
CONTINUOUS
 62
     7
 10
70.6807622404
 20
126.5846115376
 30
0.0
 11
60.5518911327
 21
116.4557404299
 31
0.0
  0
LINE
  5
BF
  8
SK2
  6
CONTINUOUS
 62
     7
 10
77.6192923145
 20
127.5964749451
 30
0.0
 11
64.4465577994
 21
114.4237404299
 31
0.0
  0
LINE
  5
C0
  8
SK2
  6
CONTINUOUS
 62
     7
 10
84.6569442469
 20
128.6227935441
 30
0.0
 11
70.4578911327
 21
114.4237404299
 31
0.0
  0
LINE
  5
C1
  8
SK2
  6
CONTINUOUS
 62
     7
 10
91.6945961792
 20
129.6491121431
 30
0.0
 11
76.469224466
 21
114.4237404299
 31
0.0
  0
LINE
  5
C2
  8
SK2
  6
CONTINUOUS
 62
     7
 10
98.7322218096
 20
130.6754269064
 30
0.0
 11
82.3958911327
 21
114.4237404299
 31
0.0
  0
LINE
  5
C3
  8
SK2
  6
CONTINUOUS
 62
     7
 10
105.6707781857
 20
131.6872941496
 30
0.0
 11
88.407224466
 21
114.4237404299
 31
0.0
  0
LINE
  5
C4
  8
SK2
  6
CONTINUOUS
 62
     7
 10
112.6098325156
 20
132.6992340106
 30
0.0
 11
94.4185577994
 21
114.4237404299
 31
0.0
  0
LINE
  5
C5
  8
SK2
  6
CONTINUOUS
 62
     7
 10
119.6469601922
 20
133.725476156
 30
0.0
 11
100.345224466
 21
114.4237404299
 31
0.0
  0
LINE
  5
C6
  8
SK2
  6
CONTINUOUS
 62
     7
 10
126.6846121245
 20
134.7517947551
 30
0.0
 11
106.3565577994
 21
114.4237404299
 31
0.0
  0
LINE
  5
C7
  8
SK2
  6
CONTINUOUS
 62
     7
 10
133.7222640569
 20
135.7781133541
 30
0.0
 11
112.3678911327
 21
114.4237404299
 31
0.0
  0
LINE
  5
C8
  8
SK2
  6
CONTINUOUS
 62
     7
 10
155.2091003867
 20
151.2536163505
 30
0.0
 11
148.0400577994
 21
144.0845737632
 31
0.0
  0
LINE
  5
C9
  8
SK2
  6
CONTINUOUS
 62
     7
 10
140.660794131
 20
136.7899767615
 30
0.0
 11
118.2945577994
 21
114.4237404299
 31
0.0
  0
LINE
  5
CA
  8
SK2
  6
CONTINUOUS
 62
     7
 10
161.2204329195
 20
151.2536163505
 30
0.0
 11
148.0400577994
 21
138.1577308145
 31
0.0
  0
LINE
  5
CB
  8
SK2
  6
CONTINUOUS
 62
     7
 10
146.6646421552
 20
136.7824914524
 30
0.0
 11
124.3058911327
 21
114.4237404299
 31
0.0
  0
LINE
  5
CC
  8
SK2
  6
CONTINUOUS
 62
     7
 10
164.099224466
 20
148.2057404299
 30
0.0
 11
130.317224466
 21
114.4237404299
 31
0.0
  0
LINE
  5
CD
  8
SK2
  6
CONTINUOUS
 62
     7
 10
166.1935737779
 20
144.2887564084
 30
0.0
 11
136.3285577994
 21
114.4237404299
 31
0.0
  0
LINE
  5
CE
  8
SK2
  6
CONTINUOUS
 62
     7
 10
179.1697644133
 20
151.2536163505
 30
0.0
 11
175.2995530009
 21
147.4640343425
 31
0.0
  0
LINE
  5
CF
  8
SK2
  6
CONTINUOUS
 62
     7
 10
171.5851003867
 20
143.7536163505
 30
0.0
 11
142.255224466
 21
114.4237404299
 31
0.0
  0
LINE
  5
D0
  8
SK2
  6
CONTINUOUS
 62
     7
 10
184.7182457597
 20
150.8754283902
 30
0.0
 11
148.2665577994
 21
114.4237404299
 31
0.0
  0
LINE
  5
D1
  8
SK2
  6
CONTINUOUS
 62
     7
 10
185.5198911327
 20
145.6657404299
 30
0.0
 11
154.2778911327
 21
114.4237404299
 31
0.0
  0
LINE
  5
D2
  8
SK2
  6
CONTINUOUS
 62
     7
 10
185.5198911327
 20
139.6544070965
 30
0.0
 11
160.2045577994
 21
114.4237404299
 31
0.0
  0
LINE
  5
D3
  8
SK2
  6
CONTINUOUS
 62
     7
 10
185.5198911327
 20
133.7277404299
 30
0.0
 11
166.2158911327
 21
114.4237404299
 31
0.0
  0
LINE
  5
D4
  8
SK2
  6
CONTINUOUS
 62
     7
 10
172.227224466
 20
114.4237404299
 30
0.0
 11
187.6821003867
 21
129.8786163505
 31
0.0
  0
LINE
  5
D5
  8
SK2
  6
CONTINUOUS
 62
     7
 10
178.2385577994
 20
114.4237404299
 30
0.0
 11
193.69343372
 21
129.8786163505
 31
0.0
  0
LINE
  5
D6
  8
SK2
  6
CONTINUOUS
 62
     7
 10
181.2865577994
 20
111.5450737632
 30
0.0
 11
199.6201003867
 21
129.8786163505
 31
0.0
  0
LINE
  5
D7
  8
SK2
  6
CONTINUOUS
 62
     7
 10
187.2978911327
 20
111.5450737632
 30
0.0
 11
203.4607457597
 21
127.7079283902
 31
0.0
  0
LINE
  5
D8
  8
SK2
  6
CONTINUOUS
 62
     7
 10
193.309224466
 20
111.5450737632
 30
0.0
 11
203.977224466
 21
122.2130737632
 31
0.0
  0
LINE
  5
D9
  8
SK2
  6
CONTINUOUS
 62
     7
 10
199.2358911327
 20
111.5450737632
 30
0.0
 11
203.977224466
 21
116.2864070965
 31
0.0
  0
LINE
  5
DA
  8
SK2
  6
CONTINUOUS
 62
     7
 10
224.9086360601
 20
129.5763603573
 30
0.0
 11
216.5720577994
 21
121.2397820965
 31
0.0
  0
LINE
  5
DB
  8
SK2
  6
CONTINUOUS
 62
     7
 10
229.0030577994
 20
127.6594487632
 30
0.0
 11
216.5720577994
 21
115.2284487632
 31
0.0
  0
LINE
  5
DC
  8
SK2
  6
CONTINUOUS
 62
     7
 10
233.0501743884
 20
125.7798986856
 30
0.0
 11
218.8430577994
 21
111.5727820965
 31
0.0
  0
LINE
  5
DD
  8
SK2
  6
CONTINUOUS
 62
     7
 10
224.8543911327
 20
111.5727820965
 30
0.0
 11
237.2075173258
 21
123.8412978363
 31
0.0
  0
LINE
  5
DE
  8
SK2
  6
CONTINUOUS
 62
     7
 10
230.865724466
 20
111.5727820965
 30
0.0
 11
239.501724466
 21
120.2087820965
 31
0.0
  0
LINE
  5
DF
  8
SK2
  6
CONTINUOUS
 62
     7
 10
236.7923911327
 20
111.5727820965
 30
0.0
 11
239.501724466
 21
114.1974487632
 31
0.0
  0
LINE
  5
E0
  8
SK1
  6
CONTINUOUS
 10
203.8400577994
 20
110.7536163505
 30
0.0
 11
216.7400577994
 21
110.7536163505
 31
0.0
  0
LINE
  5
E1
  8
SK1
  6
CONTINUOUS
 10
202.7900577994
 20
127.7036163505
 30
0.0
 11
217.7900577994
 21
127.7036163505
 31
0.0
  0
LINE
  5
E2
  8
SK1
  6
CONTINUOUS
 10
202.7900577994
 20
111.8036163505
 30
0.0
 11
217.7900577994
 21
111.8036163505
 31
0.0
  0
LINE
  5
E3
  8
SK1
  6
CONTINUOUS
 10
203.8400577994
 20
128.7536163505
 30
0.0
 11
216.7400577994
 21
128.7536163505
 31
0.0
  0
LINE
  5
E6
  8
SK3
 10
205.9599307804
 20
119.7536163505
 30
0.0
 11
205.9599307804
 21
128.7536163505
 31
0.0
  0
LINE
  5
E7
  8
SK3
 10
205.9599307804
 20
119.7536163505
 30
0.0
 11
207.0424625352
 21
119.7536163505
 31
0.0
  0
LINE
  5
E8
  8
SK3
 10
208.1249942899
 20
119.7536163505
 30
0.0
 11
208.1249942899
 21
128.7536163505
 31
0.0
  0
LINE
  5
E9
  8
SK3
 10
208.1249942899
 20
119.7536163505
 30
0.0
 11
210.2900577994
 21
119.7536163505
 31
0.0
  0
LINE
  5
EA
  8
SK3
 10
212.4551213088
 20
119.7536163505
 30
0.0
 11
212.4551213088
 21
128.7536163505
 31
0.0
  0
LINE
  5
EB
  8
SK3
 10
212.4551213088
 20
119.7536163505
 30
0.0
 11
213.5376530635
 21
119.7536163505
 31
0.0
  0
LINE
  5
EC
  8
SK3
 10
214.6201848183
 20
119.7536163505
 30
0.0
 11
214.6201848183
 21
128.7536163505
 31
0.0
  0
LINE
  5
ED
  8
SK3
 10
207.0424625352
 20
119.7536163505
 30
0.0
 11
208.1249942899
 21
119.7536163505
 31
0.0
  0
LINE
  5
EE
  8
SK3
 10
210.2900577994
 20
119.7536163505
 30
0.0
 11
212.4551213088
 21
119.7536163505
 31
0.0
  0
LINE
  5
EF
  8
SK3
 10
213.5376530635
 20
119.7536163505
 30
0.0
 11
214.6201848183
 21
119.7536163505
 31
0.0
  0
LINE
  5
F0
  8
SK1
  6
CONTINUOUS
 10
217.7900577994
 20
111.8036163505
 30
0.0
 11
217.7900577994
 21
127.7036163505
 31
0.0
  0
LINE
  5
F1
  8
SK1
  6
CONTINUOUS
 10
202.7900577994
 20
127.7036163505
 30
0.0
 11
202.7900577994
 21
111.8036163505
 31
0.0
  0
LINE
  5
F2
  8
SK1
  6
CONTINUOUS
 10
202.7900577994
 20
111.8036163505
 30
0.0
 11
203.8400577994
 21
110.7536163505
 31
0.0
  0
LINE
  5
F3
  8
SK1
  6
CONTINUOUS
 10
216.7400577994
 20
110.7536163505
 30
0.0
 11
217.7900577994
 21
111.8036163505
 31
0.0
  0
LINE
  5
F4
  8
SK1
  6
CONTINUOUS
 10
217.7900577994
 20
127.7036163505
 30
0.0
 11
216.7400577994
 21
128.7536163505
 31
0.0
  0
LINE
  5
F5
  8
SK1
  6
CONTINUOUS
 10
203.8400577994
 20
128.7536163505
 30
0.0
 11
202.7900577994
 21
127.7036163505
 31
0.0
  0
LINE
  5
F6
  8
SK3
 10
206.5400577994
 20
119.7536163505
 30
0.0
 11
210.2900577994
 21
117.5003890292
 31
0.0
  0
LINE
  5
F7
  8
SK3
 10
210.2900577994
 20
117.5003890292
 30
0.0
 11
214.0400577994
 21
119.7536163505
 31
0.0
  0
LINE
  5
F8
  8
SK1
  6
CONTINUOUS
 10
216.4100577994
 20
128.7536163505
 30
0.0
 11
216.4100577994
 21
110.7536163505
 31
0.0
  0
LINE
  5
F9
  8
SK1
  6
CONTINUOUS
 10
204.1700577994
 20
128.7536163505
 30
0.0
 11
204.1700577994
 21
110.7536163505
 31
0.0
  0
LINE
  5
FB
  8
SK2
  6
DOT2
 62
     7
 10
224.0931393284
 20
129.9566327284
 30
0.0
 11
239.5400577994
 21
122.7536163505
 31
0.0
  0
LINE
  5
FC
  8
SK2
  6
DOT2
 62
     7
 10
239.5400577994
 20
114.2980109593
 30
0.0
 11
239.5400577994
 21
122.7536163505
 31
0.0
  0
LINE
  5
FF
  8
SK4
 10
45.2235986247
 20
104.0036163505
 30
0.0
 11
242.5400577994
 21
104.0036163505
 31
0.0
  0
LINE
  5
100
  8
SK4
 10
210.2900577994
 20
107.7536163505
 30
0.0
 11
210.2900577994
 21
131.7536163505
 31
0.0
  0
LINE
  5
101
  8
SK4
 10
170.0821157736
 20
104.0141493224
 30
0.0
 11
164.8321156115
 21
104.0141493224
 31
0.0
  0
LINE
  5
102
  8
SK4
 10
167.4571156925
 20
106.6391494035
 30
0.0
 11
167.4571156925
 21
101.3891492414
 31
0.0
  0
LINE
  5
103
  8
SK4
 10
172.7071158546
 20
104.0141493224
 30
0.0
 11
182.5452690948
 21
104.0141493224
 31
0.0
  0
LINE
  5
104
  8
SK4
 10
167.4571156925
 20
109.2641494845
 30
0.0
 11
167.4571156925
 21
119.1023027247
 31
0.0
  0
LINE
  5
105
  8
SK4
 10
162.2071155305
 20
104.0141493224
 30
0.0
 11
152.3689622903
 21
104.0141493224
 31
0.0
  0
LINE
  5
106
  8
SK4
 10
167.4571156925
 20
98.7641491604
 30
0.0
 11
167.4571156925
 21
88.9259959202
 31
0.0
  0
ENDBLK
  5
108
  8
0
  0
BLOCK
  8
0
  2
GDIMGGROUP
 70
     0
 10
0.0
 20
0.0
 30
0.0
  3
GDIMGGROUP
  1

  0
POLYLINE
  5
10B
  8
SK2
  6
CONTINUOUS
 62
   136
 66
     1
 10
0.0
 20
0.0
 30
0.0
  0
VERTEX
  5
2D3
  8
SK2
  6
CONTINUOUS
 62
   136
 10
236.0400576913
 20
154.7216476756
 30
0.0
  0
VERTEX
  5
2D4
  8
SK2
  6
CONTINUOUS
 62
   136
 10
236.0400576913
 20
153.5549809729
 30
0.0
  0
VERTEX
  5
2D5
  8
SK2
  6
CONTINUOUS
 62
   136
 10
239.5400577994
 20
154.1383143243
 30
0.0
  0
VERTEX
  5
2D6
  8
SK2
  6
CONTINUOUS
 62
   136
 10
236.0400576913
 20
154.7216476756
 30
0.0
  0
SEQEND
  5
870
  8
SK2
  6
CONTINUOUS
 62
   136
  0
POLYLINE
  5
10C
  8
SK2
  6
CONTINUOUS
 62
   136
 66
     1
 10
0.0
 20
0.0
 30
0.0
  0
VERTEX
  5
2D7
  8
SK2
  6
CONTINUOUS
 62
   136
 10
213.7900582352
 20
154.7216476756
 30
0.0
  0
VERTEX
  5
2D8
  8
SK2
  6
CONTINUOUS
 62
   136
 10
213.7900582352
 20
153.5549809729
 30
0.0
  0
VERTEX
  5
2D9
  8
SK2
  6
CONTINUOUS
 62
   136
 10
210.2900581272
 20
154.1383143243
 30
0.0
  0
VERTEX
  5
2DA
  8
SK2
  6
CONTINUOUS
 62
   136
 10
213.7900582352
 20
154.7216476756
 30
0.0
  0
SEQEND
  5
86F
  8
SK2
  6
CONTINUOUS
 62
   136
  0
LINE
  5
10D
  8
SK2
  6
CONTINUOUS
 62
   136
 10
239.5400577994
 20
112.2536163505
 30
0.0
 11
239.5400577994
 21
155.8883143783
 31
0.0
  0
LINE
  5
10E
  8
SK2
  6
CONTINUOUS
 62
   136
 10
210.2900577994
 20
111.8036163505
 30
0.0
 11
210.2900577994
 21
155.8883143783
 31
0.0
  0
LINE
  5
10F
  8
SK2
  6
CONTINUOUS
 62
   136
 10
239.5400577994
 20
154.1383143243
 30
0.0
 11
210.2900581272
 21
154.1383143243
 31
0.0
  0
TEXT
  5
111
  8
SK2
  6
CONTINUOUS
 62
   136
 10
221.812785236
 20
155.0133143243
 30
0.0
 40
3.5
  1
19,5
  7
SEACAD_SOLID_EDGE_ISO
 11
221.812785236
 21
158.5133143243
 31
0.0
 73
     3
  0
ENDBLK
  5
113
  8
0
  0
BLOCK
  8
0
  2
GDIMGGROUP1
 70
     0
 10
0.0
 20
0.0
 30
0.0
  3
GDIMGGROUP1
  1

  0
POLYLINE
  5
116
  8
SK2
  6
CONTINUOUS
 62
   136
 66
     1
 10
0.0
 20
0.0
 30
0.0
  0
VERTEX
  5
2DB
  8
SK2
  6
CONTINUOUS
 62
   136
 10
236.0400576913
 20
163.1216483074
 30
0.0
  0
VERTEX
  5
2DC
  8
SK2
  6
CONTINUOUS
 62
   136
 10
236.0400576913
 20
161.9549816047
 30
0.0
  0
VERTEX
  5
2DD
  8
SK2
  6
CONTINUOUS
 62
   136
 10
239.5400577994
 20
162.5383149561
 30
0.0
  0
VERTEX
  5
2DE
  8
SK2
  6
CONTINUOUS
 62
   136
 10
236.0400576913
 20
163.1216483074
 30
0.0
  0
SEQEND
  5
86E
  8
SK2
  6
CONTINUOUS
 62
   136
  0
POLYLINE
  5
117
  8
SK2
  6
CONTINUOUS
 62
   136
 66
     1
 10
0.0
 20
0.0
 30
0.0
  0
VERTEX
  5
2DF
  8
SK2
  6
CONTINUOUS
 62
   136
 10
189.0400565067
 20
163.1216483074
 30
0.0
  0
VERTEX
  5
2E0
  8
SK2
  6
CONTINUOUS
 62
   136
 10
189.0400565067
 20
161.9549816047
 30
0.0
  0
VERTEX
  5
2E1
  8
SK2
  6
CONTINUOUS
 62
   136
 10
185.5400563986
 20
162.5383149561
 30
0.0
  0
VERTEX
  5
2E2
  8
SK2
  6
CONTINUOUS
 62
   136
 10
189.0400565067
 20
163.1216483074
 30
0.0
  0
SEQEND
  5
86D
  8
SK2
  6
CONTINUOUS
 62
   136
  0
LINE
  5
118
  8
SK2
  6
CONTINUOUS
 62
   136
 10
239.5400577994
 20
112.2536163505
 30
0.0
 11
239.5400577994
 21
164.2883150101
 31
0.0
  0
LINE
  5
119
  8
SK2
  6
CONTINUOUS
 62
   136
 10
185.5400577994
 20
150.0536163505
 30
0.0
 11
185.5400577994
 21
164.2883150101
 31
0.0
  0
LINE
  5
11A
  8
SK2
  6
CONTINUOUS
 62
   136
 10
239.5400577994
 20
162.5383149561
 30
0.0
 11
185.5400563986
 21
162.5383149561
 31
0.0
  0
TEXT
  5
11B
  8
SK2
  6
CONTINUOUS
 62
   136
 10
210.5514207354
 20
163.4133149561
 30
0.0
 40
3.5
  1
36
  7
SEACAD_SOLID_EDGE_ISO
 11
210.5514207354
 21
166.9133149561
 31
0.0
 73
     3
  0
ENDBLK
  5
11D
  8
0
  0
BLOCK
  8
0
  2
GDIMGGROUP2
 70
     0
 10
0.0
 20
0.0
 30
0.0
  3
GDIMGGROUP2
  1

  0
POLYLINE
  5
120
  8
SK2
  6
CONTINUOUS
 62
   136
 66
     1
 10
0.0
 20
0.0
 30
0.0
  0
VERTEX
  5
2E3
  8
SK2
  6
CONTINUOUS
 62
   136
 10
236.0400576913
 20
171.5216489392
 30
0.0
  0
VERTEX
  5
2E4
  8
SK2
  6
CONTINUOUS
 62
   136
 10
236.0400576913
 20
170.3549822365
 30
0.0
  0
VERTEX
  5
2E5
  8
SK2
  6
CONTINUOUS
 62
   136
 10
239.5400577994
 20
170.9383155879
 30
0.0
  0
VERTEX
  5
2E6
  8
SK2
  6
CONTINUOUS
 62
   136
 10
236.0400576913
 20
171.5216489392
 30
0.0
  0
SEQEND
  5
86C
  8
SK2
  6
CONTINUOUS
 62
   136
  0
POLYLINE
  5
121
  8
SK2
  6
CONTINUOUS
 62
   136
 66
     1
 10
0.0
 20
0.0
 30
0.0
  0
VERTEX
  5
2E7
  8
SK2
  6
CONTINUOUS
 62
   136
 10
50.440060983
 20
171.5216489392
 30
0.0
  0
VERTEX
  5
2E8
  8
SK2
  6
CONTINUOUS
 62
   136
 10
50.440060983
 20
170.3549822365
 30
0.0
  0
VERTEX
  5
2E9
  8
SK2
  6
CONTINUOUS
 62
   136
 10
46.940060875
 20
170.9383155879
 30
0.0
  0
VERTEX
  5
2EA
  8
SK2
  6
CONTINUOUS
 62
   136
 10
50.440060983
 20
171.5216489392
 30
0.0
  0
SEQEND
  5
86B
  8
SK2
  6
CONTINUOUS
 62
   136
  0
LINE
  5
122
  8
SK2
  6
CONTINUOUS
 62
   136
 10
239.5400577994
 20
112.2536163505
 30
0.0
 11
239.5400577994
 21
172.6883156419
 31
0.0
  0
LINE
  5
123
  8
SK2
  6
CONTINUOUS
 62
   136
 10
46.9400577994
 20
104.0036163505
 30
0.0
 11
46.9400577994
 21
172.6883156419
 31
0.0
  0
LINE
  5
124
  8
SK2
  6
CONTINUOUS
 62
   136
 10
239.5400577994
 20
170.9383155879
 30
0.0
 11
46.940060875
 21
170.9383155879
 31
0.0
  0
TEXT
  5
125
  8
SK2
  6
CONTINUOUS
 62
   136
 10
138.984377519
 20
171.8133155879
 30
0.0
 40
3.5
  1
128,4
  7
SEACAD_SOLID_EDGE_ISO
 11
138.984377519
 21
175.3133155879
 31
0.0
 73
     3
  0
ENDBLK
  5
127
  8
0
  0
BLOCK
  8
0
  2
GDIMGGROUP3
 70
     0
 10
0.0
 20
0.0
 30
0.0
  3
GDIMGGROUP3
  1

  0
POLYLINE
  5
12A
  8
SK2
  6
CONTINUOUS
 62
   136
 66
     1
 10
0.0
 20
0.0
 30
0.0
  0
VERTEX
  5
2EB
  8
SK2
  6
CONTINUOUS
 62
   136
 10
148.3814050616
 20
45.9754413435
 30
0.0
  0
VERTEX
  5
2EC
  8
SK2
  6
CONTINUOUS
 62
   136
 10
148.3814050616
 20
47.1421080462
 30
0.0
  0
VERTEX
  5
2ED
  8
SK2
  6
CONTINUOUS
 62
   136
 10
144.8814049536
 20
46.5587746949
 30
0.0
  0
VERTEX
  5
2EE
  8
SK2
  6
CONTINUOUS
 62
   136
 10
148.3814050616
 20
45.9754413435
 30
0.0
  0
SEQEND
  5
86A
  8
SK2
  6
CONTINUOUS
 62
   136
  0
POLYLINE
  5
12B
  8
SK2
  6
CONTINUOUS
 62
   136
 66
     1
 10
0.0
 20
0.0
 30
0.0
  0
VERTEX
  5
2EF
  8
SK2
  6
CONTINUOUS
 62
   136
 10
236.0400553034
 20
45.9754413435
 30
0.0
  0
VERTEX
  5
2F0
  8
SK2
  6
CONTINUOUS
 62
   136
 10
236.0400553034
 20
47.1421080462
 30
0.0
  0
VERTEX
  5
2F1
  8
SK2
  6
CONTINUOUS
 62
   136
 10
239.5400554114
 20
46.5587746949
 30
0.0
  0
VERTEX
  5
2F2
  8
SK2
  6
CONTINUOUS
 62
   136
 10
236.0400553034
 20
45.9754413435
 30
0.0
  0
SEQEND
  5
869
  8
SK2
  6
CONTINUOUS
 62
   136
  0
LINE
  5
12C
  8
SK2
  6
CONTINUOUS
 62
   136
 10
144.8814049536
 20
70.6017535776
 30
0.0
 11
144.8814049536
 21
44.8087746408
 31
0.0
  0
LINE
  5
12D
  8
SK2
  6
CONTINUOUS
 62
   136
 10
239.5400577994
 20
86.2092217417
 30
0.0
 11
239.5400577994
 21
44.8087746408
 31
0.0
  0
LINE
  5
12E
  8
SK2
  6
CONTINUOUS
 62
   136
 10
144.8814049536
 20
46.5587746949
 30
0.0
 11
239.5400554114
 21
46.5587746949
 31
0.0
  0
TEXT
  5
12F
  8
SK2
  6
CONTINUOUS
 62
   136
 10
190.2220938189
 20
47.4337746949
 30
0.0
 40
3.5
  1
63
  7
SEACAD_SOLID_EDGE_ISO
 11
190.2220938189
 21
50.9337746949
 31
0.0
 73
     3
  0
ENDBLK
  5
131
  8
0
  0
BLOCK
  8
0
  2
GDIMGGROUP4
 70
     0
 10
0.0
 20
0.0
 30
0.0
  3
GDIMGGROUP4
  1

  0
POLYLINE
  5
134
  8
SK2
  6
CONTINUOUS
 62
   136
 66
     1
 10
0.0
 20
0.0
 30
0.0
  0
VERTEX
  5
2F3
  8
SK2
  6
CONTINUOUS
 62
   136
 10
210.3334286698
 20
88.3793796167
 30
0.0
  0
VERTEX
  5
2F4
  8
SK2
  6
CONTINUOUS
 62
   136
 10
211.4978137467
 20
88.3064509667
 30
0.0
  0
VERTEX
  5
2F5
  8
SK2
  6
CONTINUOUS
 62
   136
 10
210.6968352584
 20
84.8497600612
 30
0.0
  0
VERTEX
  5
2F6
  8
SK2
  6
CONTINUOUS
 62
   136
 10
210.3334286698
 20
88.3793796167
 30
0.0
  0
SEQEND
  5
868
  8
SK2
  6
CONTINUOUS
 62
   136
  0
POLYLINE
  5
135
  8
SK2
  6
CONTINUOUS
 62
   136
 66
     1
 10
0.0
 20
0.0
 30
0.0
  0
VERTEX
  5
2F7
  8
SK2
  6
CONTINUOUS
 62
   136
 10
215.5048700911
 20
70.2317878392
 30
0.0
  0
VERTEX
  5
2F8
  8
SK2
  6
CONTINUOUS
 62
   136
 10
214.4803998082
 20
69.6736016386
 30
0.0
  0
VERTEX
  5
2F9
  8
SK2
  6
CONTINUOUS
 62
   136
 10
213.3180763481
 20
73.0261055878
 30
0.0
  0
VERTEX
  5
2FA
  8
SK2
  6
CONTINUOUS
 62
   136
 10
215.5048700911
 20
70.2317878392
 30
0.0
  0
SEQEND
  5
867
  8
SK2
  6
CONTINUOUS
 62
   136
  0
LINE
  5
136
  8
SK2
  6
CONTINUOUS
 62
   136
 10
238.673985192
 20
84.8497600612
 30
0.0
 11
208.9468354372
 21
84.8497600612
 31
0.0
  0
LINE
  5
137
  8
SK2
  6
CONTINUOUS
 62
   136
 10
233.997669814
 20
82.6691583885
 30
0.0
 11
211.7320378828
 21
72.2865237053
 31
0.0
  0
ARC
  5
138
  8
SK2
  6
CONTINUOUS
 62
   136
 10
238.673985192
 20
84.8497600612
 30
0.0
 40
27.97714993357674
 50
165.6643567152
 51
205.0000001265
  0
ARC
  5
139
  8
SK2
  6
CONTINUOUS
 62
   136
 10
238.673985192
 20
84.8497600612
 30
0.0
 40
27.97714993357639
 50
205.0
 51
234.7038882286
  0
TEXT
  5
13A
  8
SK2
  6
CONTINUOUS
 62
   136
 10
217.9335169892
 20
67.1831058238
 30
0.0
 40
3.5
  1
25°
 50
316.2894178976
  7
SEACAD_SOLID_EDGE_ISO
 11
220.35207273
 21
69.7130441885
 31
0.0
 73
     3
  0
ENDBLK
  5
13C
  8
0
  0
BLOCK
  8
0
  2
GDIMGGROUP5
 70
     0
 10
0.0
 20
0.0
 30
0.0
  3
GDIMGGROUP5
  1

  0
POLYLINE
  5
13F
  8
SK2
  6
CONTINUOUS
 62
   136
 66
     1
 10
0.0
 20
0.0
 30
0.0
  0
VERTEX
  5
2FB
  8
SK2
  6
CONTINUOUS
 62
   136
 10
199.2900576913
 20
143.4577758121
 30
0.0
  0
VERTEX
  5
2FC
  8
SK2
  6
CONTINUOUS
 62
   136
 10
199.2900576913
 20
142.2911091094
 30
0.0
  0
VERTEX
  5
2FD
  8
SK2
  6
CONTINUOUS
 62
   136
 10
202.7900577994
 20
142.8744424608
 30
0.0
  0
VERTEX
  5
2FE
  8
SK2
  6
CONTINUOUS
 62
   136
 10
199.2900576913
 20
143.4577758121
 30
0.0
  0
SEQEND
  5
866
  8
SK2
  6
CONTINUOUS
 62
   136
  0
POLYLINE
  5
140
  8
SK2
  6
CONTINUOUS
 62
   136
 66
     1
 10
0.0
 20
0.0
 30
0.0
  0
VERTEX
  5
2FF
  8
SK2
  6
CONTINUOUS
 62
   136
 10
221.2900579074
 20
143.4577758121
 30
0.0
  0
VERTEX
  5
300
  8
SK2
  6
CONTINUOUS
 62
   136
 10
221.2900579074
 20
142.2911091094
 30
0.0
  0
VERTEX
  5
301
  8
SK2
  6
CONTINUOUS
 62
   136
 10
217.7900577994
 20
142.8744424608
 30
0.0
  0
VERTEX
  5
302
  8
SK2
  6
CONTINUOUS
 62
   136
 10
221.2900579074
 20
143.4577758121
 30
0.0
  0
SEQEND
  5
865
  8
SK2
  6
CONTINUOUS
 62
   136
  0
LINE
  5
141
  8
SK2
  6
CONTINUOUS
 62
   136
 10
202.7900577994
 20
119.7536163505
 30
0.0
 11
202.7900577994
 21
144.6244425148
 31
0.0
  0
LINE
  5
142
  8
SK2
  6
CONTINUOUS
 62
   136
 10
217.7900577994
 20
119.7536163505
 30
0.0
 11
217.7900577994
 21
144.6244425148
 31
0.0
  0
LINE
  5
143
  8
SK2
  6
CONTINUOUS
 62
   136
 10
195.7900575833
 20
142.8744424608
 30
0.0
 11
234.2846193822
 21
142.8744424608
 31
0.0
  0
TEXT
  5
144
  8
SK2
  6
CONTINUOUS
 62
   136
 10
225.8050742419
 20
143.7494424608
 30
0.0
 40
3.5
  1
M10
  7
SEACAD_SOLID_EDGE_ISO
 11
225.8050742419
 21
147.2494424608
 31
0.0
 73
     3
  0
ENDBLK
  5
146
  8
0
  0
BLOCK
  8
0
  2
GDIMGGROUP6
 70
     0
 10
0.0
 20
0.0
 30
0.0
  3
GDIMGGROUP6
  1

  0
POLYLINE
  5
149
  8
SK2
  6
CONTINUOUS
 62
   136
 66
     1
 10
0.0
 20
0.0
 30
0.0
  0
VERTEX
  5
303
  8
SK2
  6
CONTINUOUS
 62
   136
 10
251.335563726
 20
108.0036162425
 30
0.0
  0
VERTEX
  5
304
  8
SK2
  6
CONTINUOUS
 62
   136
 10
250.1688970233
 20
108.0036162425
 30
0.0
  0
VERTEX
  5
305
  8
SK2
  6
CONTINUOUS
 62
   136
 10
250.7522303746
 20
111.5036163505
 30
0.0
  0
VERTEX
  5
306
  8
SK2
  6
CONTINUOUS
 62
   136
 10
251.335563726
 20
108.0036162425
 30
0.0
  0
SEQEND
  5
864
  8
SK2
  6
CONTINUOUS
 62
   136
  0
LINE
  5
14A
  8
SK2
  6
CONTINUOUS
 62
   136
 10
238.7900577994
 20
111.5036163505
 30
0.0
 11
252.5022304287
 21
111.5036163505
 31
0.0
  0
LINE
  5
14B
  8
SK2
  6
CONTINUOUS
 62
   136
 10
250.7522303746
 20
111.5036163505
 30
0.0
 11
250.7522303746
 21
104.0036165182
 31
0.0
  0
TEXT
  5
14D
  8
SK2
  6
CONTINUOUS
 62
   136
 10
249.8772303746
 20
96.6953244447
 30
0.0
 40
3.5
  1
O
 50
90.0
  7
SEACAD_SOLID_EDGE_ISO1_SYM
 11
246.3772303746
 21
96.6953244447
 31
0.0
 73
     3
  0
TEXT
  5
14E
  8
SK2
  6
CONTINUOUS
 62
   136
 10
249.8772303746
 20
102.7865525149
 30
0.0
 40
3.5
  1
10
 50
90.0
  7
SEACAD_SOLID_EDGE_ISO
 11
246.3772303746
 21
102.7865525149
 31
0.0
 73
     3
  0
ENDBLK
  5
150
  8
0
  0
BLOCK
  8
0
  2
GDIMGGROUP7
 70
     0
 10
0.0
 20
0.0
 30
0.0
  3
GDIMGGROUP7
  1

  0
POLYLINE
  5
153
  8
SK2
  6
CONTINUOUS
 62
   136
 66
     1
 10
0.0
 20
0.0
 30
0.0
  0
VERTEX
  5
307
  8
SK2
  6
CONTINUOUS
 62
   136
 10
259.7355637692
 20
119.2536162425
 30
0.0
  0
VERTEX
  5
308
  8
SK2
  6
CONTINUOUS
 62
   136
 10
258.5688970665
 20
119.2536162425
 30
0.0
  0
VERTEX
  5
309
  8
SK2
  6
CONTINUOUS
 62
   136
 10
259.1522304179
 20
122.7536163505
 30
0.0
  0
VERTEX
  5
30A
  8
SK2
  6
CONTINUOUS
 62
   136
 10
259.7355637692
 20
119.2536162425
 30
0.0
  0
SEQEND
  5
863
  8
SK2
  6
CONTINUOUS
 62
   136
  0
LINE
  5
154
  8
SK2
  6
CONTINUOUS
 62
   136
 10
239.5400577994
 20
122.7536163505
 30
0.0
 11
260.9022304719
 21
122.7536163505
 31
0.0
  0
LINE
  5
155
  8
SK2
  6
CONTINUOUS
 62
   136
 10
259.1522304179
 20
122.7536163505
 30
0.0
 11
259.1522304179
 21
104.0036156055
 31
0.0
  0
TEXT
  5
156
  8
SK2
  6
CONTINUOUS
 62
   136
 10
258.2772304179
 20
98.8898197522
 30
0.0
 40
3.5
  1
O
 50
90.0
  7
SEACAD_SOLID_EDGE_ISO1_SYM
 11
254.7772304179
 21
98.8898197522
 31
0.0
 73
     3
  0
TEXT
  5
157
  8
SK2
  6
CONTINUOUS
 62
   136
 10
258.2772304179
 20
104.9810478224
 30
0.0
 40
3.5
  1
25
 50
90.0
  7
SEACAD_SOLID_EDGE_ISO
 11
254.7772304179
 21
104.9810478224
 31
0.0
 73
     3
  0
ENDBLK
  5
159
  8
0
  0
BLOCK
  8
0
  2
GDIMGGROUP8
 70
     0
 10
0.0
 20
0.0
 30
0.0
  3
GDIMGGROUP8
  1

  0
POLYLINE
  5
15C
  8
SK2
  6
CONTINUOUS
 62
   136
 66
     1
 10
0.0
 20
0.0
 30
0.0
  0
VERTEX
  5
30B
  8
SK2
  6
CONTINUOUS
 62
   136
 10
268.1355639348
 20
126.3786162425
 30
0.0
  0
VERTEX
  5
30C
  8
SK2
  6
CONTINUOUS
 62
   136
 10
266.9688972321
 20
126.3786162425
 30
0.0
  0
VERTEX
  5
30D
  8
SK2
  6
CONTINUOUS
 62
   136
 10
267.5522305835
 20
129.8786163505
 30
0.0
  0
VERTEX
  5
30E
  8
SK2
  6
CONTINUOUS
 62
   136
 10
268.1355639348
 20
126.3786162425
 30
0.0
  0
SEQEND
  5
862
  8
SK2
  6
CONTINUOUS
 62
   136
  0
LINE
  5
15D
  8
SK2
  6
CONTINUOUS
 62
   136
 10
223.9279039968
 20
129.8786163505
 30
0.0
 11
269.3022306375
 21
129.8786163505
 31
0.0
  0
LINE
  5
15E
  8
SK2
  6
CONTINUOUS
 62
   136
 10
267.5522305835
 20
129.8786163505
 30
0.0
 11
267.5522305835
 21
104.0036160674
 31
0.0
  0
TEXT
  5
15F
  8
SK2
  6
CONTINUOUS
 62
   136
 10
266.6772305835
 20
97.696638396
 30
0.0
 40
3.5
  1
O
 50
90.0
  7
SEACAD_SOLID_EDGE_ISO1_SYM
 11
263.1772305835
 21
97.696638396
 31
0.0
 73
     3
  0
TEXT
  5
160
  8
SK2
  6
CONTINUOUS
 62
   136
 10
266.6772305835
 20
103.7878664661
 30
0.0
 40
3.5
  1
34,5
 50
90.0
  7
SEACAD_SOLID_EDGE_ISO
 11
263.1772305835
 21
103.7878664661
 31
0.0
 73
     3
  0
ENDBLK
  5
162
  8
0
  0
BLOCK
  8
0
  2
SEANNOT_GROUP
 70
     0
 10
0.0
 20
0.0
 30
0.0
  3
SEANNOT_GROUP
  1

  0
TEXT
  5
165
  8
SK2
  6
CONTINUOUS
 62
     7
 10
243.1483969886
 20
25.7525109624
 30
0.0
 40
3.5
  1
214031030
  7
SEACAD_SOLID_EDGE_ISOB
 11
243.1483969886
 21
29.2525109624
 31
0.0
 73
     3
  0
TEXT
  5
166
  8
SK2
  6
CONTINUOUS
 62
     7
 10
260.0915788068
 20
25.7525109624
 30
0.0
 40
3.5
  1
 
  7
SEACAD_SOLID_EDGE_ISOB
 11
260.0915788068
 21
29.2525109624
 31
0.0
 73
     3
  0
ENDBLK
  5
168
  8
0
  0
BLOCK
  8
0
  2
SEANNOT_GROUP1
 70
     0
 10
0.0
 20
0.0
 30
0.0
  3
SEANNOT_GROUP1
  1

  0
TEXT
  5
16A
  8
SK2
  6
CONTINUOUS
 62
     7
 10
243.1477357349
 20
20.0537100543
 30
0.0
 40
3.5
  1
05.01.2015
  7
SEACAD_SOLID_EDGE_ISO
 11
243.1477357349
 21
23.5537100543
 31
0.0
 73
     3
  0
ENDBLK
  5
16C
  8
0
  0
BLOCK
  8
0
  2
SEANNOT_GROUP2
 70
     0
 10
0.0
 20
0.0
 30
0.0
  3
SEANNOT_GROUP2
  1

  0
TEXT
  5
16E
  8
SK2
  6
CONTINUOUS
 62
     7
 10
243.1795282745
 20
31.5598894014
 30
0.0
 40
3.5
  1
BT40_WD10x063
  7
SEACAD_SOLID_EDGE_ISOB
 11
243.1795282745
 21
35.0598894014
 31
0.0
 73
     3
  0
TEXT
  5
16F
  8
SK2
  6
CONTINUOUS
 62
     7
 10
269.9863464563
 20
31.5598894014
 30
0.0
 40
3.5
  1
 
  7
SEACAD_SOLID_EDGE_ISOB
 11
269.9863464563
 21
35.0598894014
 31
0.0
 73
     3
  0
ENDBLK
  5
171
  8
0
  0
BLOCK
  8
0
  2
SEANNOT_GROUP3
 70
     0
 10
0.0
 20
0.0
 30
0.0
  3
SEANNOT_GROUP3
  1

  0
TEXT
  5
173
  8
SK2
  6
CONTINUOUS
 62
     7
 10
243.2357917511
 20
14.1955389783
 30
0.0
 40
3.5
  1
1.5:1
  7
SEACAD_SOLID_EDGE_ISO
 11
243.2357917511
 21
17.6955389783
 31
0.0
 73
     3
  0
ENDBLK
  5
175
  8
0
  0
BLOCK
  8
0
  2
RF-MASSBLATT_ZR
 70
     0
 10
0.0
 20
0.0
 30
0.0
  3
RF-MASSBLATT_ZR
  1

  0
INSERT
  5
177
  8
SK2
  2
*X16
 10
0.0
 20
0.0
 30
0.0
  0
INSERT
  5
178
  8
SK2
  2
*X17
 10
0.0
 20
0.0
 30
0.0
  0
INSERT
  5
179
  8
SK2
  2
SEANNOT_GROUP
 10
0.0
 20
0.0
 30
0.0
  0
INSERT
  5
17A
  8
SK2
  2
SEANNOT_GROUP1
 10
0.0
 20
0.0
 30
0.0
  0
INSERT
  5
17B
  8
SK2
  2
*X18
 10
0.0
 20
0.0
 30
0.0
  0
LINE
  5
17C
  8
SK2
  6
CONTINUOUS
 62
     7
 10
42.3215148765
 20
194.9385447651
 30
0.0
 11
42.3215148765
 21
185.7546855318
 31
0.0
  0
LINE
  5
17D
  8
SK2
  6
CONTINUOUS
 62
     7
 10
42.3215148765
 20
185.7546855318
 30
0.0
 11
44.7134936776
 21
185.7546855318
 31
0.0
  0
LINE
  5
17E
  8
SK2
  6
CONTINUOUS
 62
     7
 10
44.7134936776
 20
185.7546855318
 30
0.0
 11
44.7134936776
 21
189.328289944
 31
0.0
  0
LINE
  5
17F
  8
SK2
  6
CONTINUOUS
 62
     7
 10
44.7134936776
 20
189.328289944
 30
0.0
 11
47.004485953
 21
185.7478114002
 31
0.0
  0
LINE
  5
180
  8
SK2
  6
CONTINUOUS
 62
     7
 10
47.004485953
 20
185.7478114002
 30
0.0
 11
49.9729156609
 21
185.7478114002
 31
0.0
  0
LINE
  5
181
  8
SK2
  6
CONTINUOUS
 62
     7
 10
49.9729156609
 20
185.7478114002
 30
0.0
 11
47.1020457187
 21
189.5154994518
 31
0.0
  0
POLYLINE
  5
182
  8
SK2
  6
CONTINUOUS
 62
     7
 66
     1
 10
0.0
 20
0.0
 30
0.0
  0
VERTEX
  5
323
  8
SK2
  6
CONTINUOUS
 62
     7
 10
45.9858060265
 20
194.9385447651
 30
0.0
  0
VERTEX
  5
324
  8
SK2
  6
CONTINUOUS
 62
     7
 10
46.125446592
 20
194.937115703
 30
0.0
  0
VERTEX
  5
325
  8
SK2
  6
CONTINUOUS
 62
     7
 10
46.2632924432
 20
194.9326475273
 30
0.0
  0
VERTEX
  5
326
  8
SK2
  6
CONTINUOUS
 62
     7
 10
46.3993735004
 20
194.9248687547
 30
0.0
  0
VERTEX
  5
327
  8
SK2
  6
CONTINUOUS
 62
     7
 10
46.5337196841
 20
194.9135079016
 30
0.0
  0
VERTEX
  5
328
  8
SK2
  6
CONTINUOUS
 62
     7
 10
46.6663609148
 20
194.8982934843
 30
0.0
  0
VERTEX
  5
329
  8
SK2
  6
CONTINUOUS
 62
     7
 10
46.7973271129
 20
194.8789540194
 30
0.0
  0
VERTEX
  5
32A
  8
SK2
  6
CONTINUOUS
 62
     7
 10
46.9266481989
 20
194.8552180233
 30
0.0
  0
VERTEX
  5
32B
  8
SK2
  6
CONTINUOUS
 62
     7
 10
47.0543540932
 20
194.8268140124
 30
0.0
  0
VERTEX
  5
32C
  8
SK2
  6
CONTINUOUS
 62
     7
 10
47.1804747164
 20
194.7934705032
 30
0.0
  0
VERTEX
  5
32D
  8
SK2
  6
CONTINUOUS
 62
     7
 10
47.3050399887
 20
194.754916012
 30
0.0
  0
VERTEX
  5
32E
  8
SK2
  6
CONTINUOUS
 62
     7
 10
47.4280793388
 20
194.7108793502
 30
0.0
  0
VERTEX
  5
32F
  8
SK2
  6
CONTINUOUS
 62
     7
 10
47.5494706032
 20
194.6611801566
 30
0.0
  0
VERTEX
  5
330
  8
SK2
  6
CONTINUOUS
 62
     7
 10
47.6687265419
 20
194.6058568087
 30
0.0
  0
VERTEX
  5
331
  8
SK2
  6
CONTINUOUS
 62
     7
 10
47.7853060681
 20
194.5449799471
 30
0.0
  0
VERTEX
  5
332
  8
SK2
  6
CONTINUOUS
 62
     7
 10
47.8986680952
 20
194.478620212
 30
0.0
  0
VERTEX
  5
333
  8
SK2
  6
CONTINUOUS
 62
     7
 10
48.0082715363
 20
194.4068482439
 30
0.0
  0
VERTEX
  5
334
  8
SK2
  6
CONTINUOUS
 62
     7
 10
48.113575305
 20
194.3297346831
 30
0.0
  0
VERTEX
  5
335
  8
SK2
  6
CONTINUOUS
 62
     7
 10
48.2140383144
 20
194.24735017
 30
0.0
  0
VERTEX
  5
336
  8
SK2
  6
CONTINUOUS
 62
     7
 10
48.3091308599
 20
194.1597706591
 30
0.0
  0
VERTEX
  5
337
  8
SK2
  6
CONTINUOUS
 62
     7
 10
48.3985995688
 20
194.0672011211
 30
0.0
  0
VERTEX
  5
338
  8
SK2
  6
CONTINUOUS
 62
     7
 10
48.4824757302
 20
193.9699794318
 30
0.0
  0
VERTEX
  5
339
  8
SK2
  6
CONTINUOUS
 62
     7
 10
48.5608036818
 20
193.8684495596
 30
0.0
  0
VERTEX
  5
33A
  8
SK2
  6
CONTINUOUS
 62
     7
 10
48.6336277613
 20
193.7629554724
 30
0.0
  0
VERTEX
  5
33B
  8
SK2
  6
CONTINUOUS
 62
     7
 10
48.7009923064
 20
193.6538411384
 30
0.0
  0
VERTEX
  5
33C
  8
SK2
  6
CONTINUOUS
 62
     7
 10
48.7629416547
 20
193.5414505258
 30
0.0
  0
VERTEX
  5
33D
  8
SK2
  6
CONTINUOUS
 62
     7
 10
48.8195201439
 20
193.4261276028
 30
0.0
  0
VERTEX
  5
33E
  8
SK2
  6
CONTINUOUS
 62
     7
 10
48.8707721118
 20
193.3082163374
 30
0.0
  0
VERTEX
  5
33F
  8
SK2
  6
CONTINUOUS
 62
     7
 10
48.916741896
 20
193.1880606978
 30
0.0
  0
VERTEX
  5
340
  8
SK2
  6
CONTINUOUS
 62
     7
 10
48.957473291
 20
193.0660024654
 30
0.0
  0
VERTEX
  5
341
  8
SK2
  6
CONTINUOUS
 62
     7
 10
48.9929944632
 20
192.9423204876
 30
0.0
  0
VERTEX
  5
342
  8
SK2
  6
CONTINUOUS
 62
     7
 10
49.0233159779
 20
192.817222737
 30
0.0
  0
VERTEX
  5
343
  8
SK2
  6
CONTINUOUS
 62
     7
 10
49.0484474617
 20
192.690913404
 30
0.0
  0
VERTEX
  5
344
  8
SK2
  6
CONTINUOUS
 62
     7
 10
49.0683985408
 20
192.5635966789
 30
0.0
  0
VERTEX
  5
345
  8
SK2
  6
CONTINUOUS
 62
     7
 10
49.0831788416
 20
192.4354767523
 30
0.0
  0
VERTEX
  5
346
  8
SK2
  6
CONTINUOUS
 62
     7
 10
49.0927979905
 20
192.3067578144
 30
0.0
  0
VERTEX
  5
347
  8
SK2
  6
CONTINUOUS
 62
     7
 10
49.0972656138
 20
192.1776440558
 30
0.0
  0
VERTEX
  5
348
  8
SK2
  6
CONTINUOUS
 62
     7
 10
49.0965913379
 20
192.0483396668
 30
0.0
  0
VERTEX
  5
349
  8
SK2
  6
CONTINUOUS
 62
     7
 10
49.0907847892
 20
191.9190488378
 30
0.0
  0
VERTEX
  5
34A
  8
SK2
  6
CONTINUOUS
 62
     7
 10
49.079855594
 20
191.7899757592
 30
0.0
  0
VERTEX
  5
34B
  8
SK2
  6
CONTINUOUS
 62
     7
 10
49.0638133787
 20
191.6613246214
 30
0.0
  0
VERTEX
  5
34C
  8
SK2
  6
CONTINUOUS
 62
     7
 10
49.0426677696
 20
191.5332996149
 30
0.0
  0
VERTEX
  5
34D
  8
SK2
  6
CONTINUOUS
 62
     7
 10
49.0164283931
 20
191.4061049301
 30
0.0
  0
VERTEX
  5
34E
  8
SK2
  6
CONTINUOUS
 62
     7
 10
48.9851048756
 20
191.2799447572
 30
0.0
  0
VERTEX
  5
34F
  8
SK2
  6
CONTINUOUS
 62
     7
 10
48.9487068435
 20
191.1550232869
 30
0.0
  0
VERTEX
  5
350
  8
SK2
  6
CONTINUOUS
 62
     7
 10
48.9072281877
 20
191.0315876706
 30
0.0
  0
VERTEX
  5
351
  8
SK2
  6
CONTINUOUS
 62
     7
 10
48.8605829973
 20
190.9101029406
 30
0.0
  0
VERTEX
  5
352
  8
SK2
  6
CONTINUOUS
 62
     7
 10
48.8086601233
 20
190.7911030345
 30
0.0
  0
VERTEX
  5
353
  8
SK2
  6
CONTINUOUS
 62
     7
 10
48.751348407
 20
190.6751219168
 30
0.0
  0
VERTEX
  5
354
  8
SK2
  6
CONTINUOUS
 62
     7
 10
48.6885366897
 20
190.5626935519
 30
0.0
  0
VERTEX
  5
355
  8
SK2
  6
CONTINUOUS
 62
     7
 10
48.6201138127
 20
190.4543519044
 30
0.0
  0
VERTEX
  5
356
  8
SK2
  6
CONTINUOUS
 62
     7
 10
48.5459686172
 20
190.3506309388
 30
0.0
  0
VERTEX
  5
357
  8
SK2
  6
CONTINUOUS
 62
     7
 10
48.4659899446
 20
190.2520646196
 30
0.0
  0
VERTEX
  5
358
  8
SK2
  6
CONTINUOUS
 62
     7
 10
48.3800666361
 20
190.1591869113
 30
0.0
  0
VERTEX
  5
359
  8
SK2
  6
CONTINUOUS
 62
     7
 10
48.2881205828
 20
190.072477393
 30
0.0
  0
VERTEX
  5
35A
  8
SK2
  6
CONTINUOUS
 62
     7
 10
48.1903451689
 20
189.9919688857
 30
0.0
  0
VERTEX
  5
35B
  8
SK2
  6
CONTINUOUS
 62
     7
 10
48.0870670017
 20
189.9174749846
 30
0.0
  0
VERTEX
  5
35C
  8
SK2
  6
CONTINUOUS
 62
     7
 10
47.9786136074
 20
189.8488077717
 30
0.0
  0
VERTEX
  5
35D
  8
SK2
  6
CONTINUOUS
 62
     7
 10
47.8653125127
 20
189.7857793293
 30
0.0
  0
VERTEX
  5
35E
  8
SK2
  6
CONTINUOUS
 62
     7
 10
47.7474912441
 20
189.7282017393
 30
0.0
  0
VERTEX
  5
35F
  8
SK2
  6
CONTINUOUS
 62
     7
 10
47.625477328
 20
189.675887084
 30
0.0
  0
VERTEX
  5
360
  8
SK2
  6
CONTINUOUS
 62
     7
 10
47.4995982909
 20
189.6286474455
 30
0.0
  0
VERTEX
  5
361
  8
SK2
  6
CONTINUOUS
 62
     7
 10
47.3701816593
 20
189.5862949058
 30
0.0
  0
VERTEX
  5
362
  8
SK2
  6
CONTINUOUS
 62
     7
 10
47.2375549598
 20
189.5486415472
 30
0.0
  0
VERTEX
  5
363
  8
SK2
  6
CONTINUOUS
 62
     7
 10
47.1020457187
 20
189.5154994518
 30
0.0
  0
SEQEND
  5
861
  8
SK2
  6
CONTINUOUS
 62
     7
  0
LINE
  5
183
  8
SK2
  6
CONTINUOUS
 62
     7
 10
42.3215148765
 20
194.9385447651
 30
0.0
 11
45.9858060265
 21
194.9385447651
 31
0.0
  0
LINE
  5
184
  8
SK2
  6
CONTINUOUS
 62
     7
 10
44.7134936776
 20
190.8092449516
 30
0.0
 11
44.7134936776
 21
193.1018851123
 31
0.0
  0
LINE
  5
185
  8
SK2
  6
CONTINUOUS
 62
     7
 10
44.7134936776
 20
193.1018851123
 30
0.0
 11
45.4499577767
 21
193.1018851123
 31
0.0
  0
POLYLINE
  5
186
  8
SK2
  6
CONTINUOUS
 62
     7
 66
     1
 10
0.0
 20
0.0
 30
0.0
  0
VERTEX
  5
364
  8
SK2
  6
CONTINUOUS
 62
     7
 10
45.4499577767
 20
193.1018851123
 30
0.0
  0
VERTEX
  5
365
  8
SK2
  6
CONTINUOUS
 62
     7
 10
45.520609659
 20
193.0999633716
 30
0.0
  0
VERTEX
  5
366
  8
SK2
  6
CONTINUOUS
 62
     7
 10
45.5910309646
 20
193.0942577852
 30
0.0
  0
VERTEX
  5
367
  8
SK2
  6
CONTINUOUS
 62
     7
 10
45.6609203921
 20
193.084857806
 30
0.0
  0
VERTEX
  5
368
  8
SK2
  6
CONTINUOUS
 62
     7
 10
45.7299766399
 20
193.0718528871
 30
0.0
  0
VERTEX
  5
369
  8
SK2
  6
CONTINUOUS
 62
     7
 10
45.7978984066
 20
193.0553324815
 30
0.0
  0
VERTEX
  5
36A
  8
SK2
  6
CONTINUOUS
 62
     7
 10
45.8643843909
 20
193.0353860424
 30
0.0
  0
VERTEX
  5
36B
  8
SK2
  6
CONTINUOUS
 62
     7
 10
45.9291332913
 20
193.0121030228
 30
0.0
  0
VERTEX
  5
36C
  8
SK2
  6
CONTINUOUS
 62
     7
 10
45.9918438064
 20
192.9855728758
 30
0.0
  0
VERTEX
  5
36D
  8
SK2
  6
CONTINUOUS
 62
     7
 10
46.0522146347
 20
192.9558850545
 30
0.0
  0
VERTEX
  5
36E
  8
SK2
  6
CONTINUOUS
 62
     7
 10
46.1099444748
 20
192.9231290119
 30
0.0
  0
VERTEX
  5
36F
  8
SK2
  6
CONTINUOUS
 62
     7
 10
46.1647320253
 20
192.8873942011
 30
0.0
  0
VERTEX
  5
370
  8
SK2
  6
CONTINUOUS
 62
     7
 10
46.2162759847
 20
192.8487700752
 30
0.0
  0
VERTEX
  5
371
  8
SK2
  6
CONTINUOUS
 62
     7
 10
46.2642842083
 20
192.8073475278
 30
0.0
  0
VERTEX
  5
372
  8
SK2
  6
CONTINUOUS
 62
     7
 10
46.308654495
 20
192.7632473357
 30
0.0
  0
VERTEX
  5
373
  8
SK2
  6
CONTINUOUS
 62
     7
 10
46.3494637748
 20
192.7166184577
 30
0.0
  0
VERTEX
  5
374
  8
SK2
  6
CONTINUOUS
 62
     7
 10
46.3867959689
 20
192.6676109526
 30
0.0
  0
VERTEX
  5
375
  8
SK2
  6
CONTINUOUS
 62
     7
 10
46.4207349988
 20
192.6163748791
 30
0.0
  0
VERTEX
  5
376
  8
SK2
  6
CONTINUOUS
 62
     7
 10
46.4513647859
 20
192.5630602959
 30
0.0
  0
VERTEX
  5
377
  8
SK2
  6
CONTINUOUS
 62
     7
 10
46.4787692515
 20
192.5078172618
 30
0.0
  0
VERTEX
  5
378
  8
SK2
  6
CONTINUOUS
 62
     7
 10
46.503032317
 20
192.4507958355
 30
0.0
  0
VERTEX
  5
379
  8
SK2
  6
CONTINUOUS
 62
     7
 10
46.5242379039
 20
192.3921460758
 30
0.0
  0
VERTEX
  5
37A
  8
SK2
  6
CONTINUOUS
 62
     7
 10
46.5424699336
 20
192.3320180414
 30
0.0
  0
VERTEX
  5
37B
  8
SK2
  6
CONTINUOUS
 62
     7
 10
46.5578123273
 20
192.270561791
 30
0.0
  0
VERTEX
  5
37C
  8
SK2
  6
CONTINUOUS
 62
     7
 10
46.5703372392
 20
192.2079390735
 30
0.0
  0
VERTEX
  5
37D
  8
SK2
  6
CONTINUOUS
 62
     7
 10
46.580053351
 20
192.1443746929
 30
0.0
  0
VERTEX
  5
37E
  8
SK2
  6
CONTINUOUS
 62
     7
 10
46.5869480389
 20
192.0801146189
 30
0.0
  0
VERTEX
  5
37F
  8
SK2
  6
CONTINUOUS
 62
     7
 10
46.5910086637
 20
192.0154048364
 30
0.0
  0
VERTEX
  5
380
  8
SK2
  6
CONTINUOUS
 62
     7
 10
46.592222586
 20
191.9504913306
 30
0.0
  0
VERTEX
  5
381
  8
SK2
  6
CONTINUOUS
 62
     7
 10
46.5905771665
 20
191.8856200866
 30
0.0
  0
VERTEX
  5
382
  8
SK2
  6
CONTINUOUS
 62
     7
 10
46.5860597658
 20
191.8210370894
 30
0.0
  0
VERTEX
  5
383
  8
SK2
  6
CONTINUOUS
 62
     7
 10
46.5786577447
 20
191.7569883242
 30
0.0
  0
VERTEX
  5
384
  8
SK2
  6
CONTINUOUS
 62
     7
 10
46.5683584638
 20
191.693719776
 30
0.0
  0
VERTEX
  5
385
  8
SK2
  6
CONTINUOUS
 62
     7
 10
46.5551492521
 20
191.631477377
 30
0.0
  0
VERTEX
  5
386
  8
SK2
  6
CONTINUOUS
 62
     7
 10
46.5390014573
 20
191.5704804391
 30
0.0
  0
VERTEX
  5
387
  8
SK2
  6
CONTINUOUS
 62
     7
 10
46.5198445489
 20
191.5108785154
 30
0.0
  0
VERTEX
  5
388
  8
SK2
  6
CONTINUOUS
 62
     7
 10
46.4976012199
 20
191.4528098713
 30
0.0
  0
VERTEX
  5
389
  8
SK2
  6
CONTINUOUS
 62
     7
 10
46.4721941634
 20
191.3964127723
 30
0.0
  0
VERTEX
  5
38A
  8
SK2
  6
CONTINUOUS
 62
     7
 10
46.4435460723
 20
191.3418254841
 30
0.0
  0
VERTEX
  5
38B
  8
SK2
  6
CONTINUOUS
 62
     7
 10
46.4115796399
 20
191.2891862721
 30
0.0
  0
VERTEX
  5
38C
  8
SK2
  6
CONTINUOUS
 62
     7
 10
46.3762175591
 20
191.2386334018
 30
0.0
  0
VERTEX
  5
38D
  8
SK2
  6
CONTINUOUS
 62
     7
 10
46.3373825229
 20
191.1903051388
 30
0.0
  0
VERTEX
  5
38E
  8
SK2
  6
CONTINUOUS
 62
     7
 10
46.2949972246
 20
191.1443397485
 30
0.0
  0
VERTEX
  5
38F
  8
SK2
  6
CONTINUOUS
 62
     7
 10
46.2489890068
 20
191.1008750128
 30
0.0
  0
VERTEX
  5
390
  8
SK2
  6
CONTINUOUS
 62
     7
 10
46.1994572049
 20
191.060030816
 30
0.0
  0
VERTEX
  5
391
  8
SK2
  6
CONTINUOUS
 62
     7
 10
46.1467196346
 20
191.021904308
 30
0.0
  0
VERTEX
  5
392
  8
SK2
  6
CONTINUOUS
 62
     7
 10
46.0911082265
 20
190.9865911697
 30
0.0
  0
VERTEX
  5
393
  8
SK2
  6
CONTINUOUS
 62
     7
 10
46.0329549111
 20
190.9541870822
 30
0.0
  0
VERTEX
  5
394
  8
SK2
  6
CONTINUOUS
 62
     7
 10
45.9725916189
 20
190.9247877266
 30
0.0
  0
VERTEX
  5
395
  8
SK2
  6
CONTINUOUS
 62
     7
 10
45.9103502804
 20
190.8984887838
 30
0.0
  0
VERTEX
  5
396
  8
SK2
  6
CONTINUOUS
 62
     7
 10
45.8465628261
 20
190.8753859349
 30
0.0
  0
VERTEX
  5
397
  8
SK2
  6
CONTINUOUS
 62
     7
 10
45.7815611865
 20
190.855574861
 30
0.0
  0
VERTEX
  5
398
  8
SK2
  6
CONTINUOUS
 62
     7
 10
45.7156772921
 20
190.839151243
 30
0.0
  0
VERTEX
  5
399
  8
SK2
  6
CONTINUOUS
 62
     7
 10
45.6492430734
 20
190.8262107621
 30
0.0
  0
VERTEX
  5
39A
  8
SK2
  6
CONTINUOUS
 62
     7
 10
45.5825904609
 20
190.8168490992
 30
0.0
  0
VERTEX
  5
39B
  8
SK2
  6
CONTINUOUS
 62
     7
 10
45.5160513852
 20
190.8111619353
 30
0.0
  0
VERTEX
  5
39C
  8
SK2
  6
CONTINUOUS
 62
     7
 10
45.4499577767
 20
190.8092449516
 30
0.0
  0
SEQEND
  5
860
  8
SK2
  6
CONTINUOUS
 62
     7
  0
LINE
  5
187
  8
SK2
  6
CONTINUOUS
 62
     7
 10
45.4499577767
 20
190.8092449516
 30
0.0
 11
44.7134936776
 21
190.8092449516
 31
0.0
  0
LINE
  5
188
  8
SK2
  6
CONTINUOUS
 62
     7
 10
52.6036222119
 20
189.3556342129
 30
0.0
 11
52.6036222119
 21
187.7987305594
 31
0.0
  0
LINE
  5
189
  8
SK2
  6
CONTINUOUS
 62
     7
 10
55.2809797956
 20
189.3556342129
 30
0.0
 11
52.6036222119
 21
189.3556342129
 31
0.0
  0
LINE
  5
18A
  8
SK2
  6
CONTINUOUS
 62
     7
 10
55.2809797956
 20
191.3941140266
 30
0.0
 11
55.2809797956
 21
189.3556342129
 31
0.0
  0
LINE
  5
18B
  8
SK2
  6
CONTINUOUS
 62
     7
 10
55.2809797956
 20
191.3941140266
 30
0.0
 11
52.5967803419
 21
191.3941140266
 31
0.0
  0
LINE
  5
18C
  8
SK2
  6
CONTINUOUS
 62
     7
 10
52.5967803419
 20
191.3941140266
 30
0.0
 11
52.5967803419
 21
192.8944997376
 31
0.0
  0
LINE
  5
18D
  8
SK2
  6
CONTINUOUS
 62
     7
 10
55.4161311986
 20
192.8944997376
 30
0.0
 11
52.5967803419
 21
192.8944997376
 31
0.0
  0
LINE
  5
18E
  8
SK2
  6
CONTINUOUS
 62
     7
 10
55.4161311986
 20
194.9385447651
 30
0.0
 11
55.4161311986
 21
192.8944997376
 31
0.0
  0
LINE
  5
18F
  8
SK2
  6
CONTINUOUS
 62
     7
 10
50.2139862307
 20
194.9385447651
 30
0.0
 11
55.4161311986
 21
194.9385447651
 31
0.0
  0
LINE
  5
190
  8
SK2
  6
CONTINUOUS
 62
     7
 10
50.2139862307
 20
194.9385447651
 30
0.0
 11
50.2139862307
 21
185.7546855318
 31
0.0
  0
LINE
  5
191
  8
SK2
  6
CONTINUOUS
 62
     7
 10
50.2139862307
 20
185.7546855318
 30
0.0
 11
55.4161311986
 21
185.7546855318
 31
0.0
  0
LINE
  5
192
  8
SK2
  6
CONTINUOUS
 62
     7
 10
55.4161311986
 20
187.7987305594
 30
0.0
 11
55.4161311986
 21
185.7546855318
 31
0.0
  0
LINE
  5
193
  8
SK2
  6
CONTINUOUS
 62
     7
 10
52.6036222119
 20
187.7987305594
 30
0.0
 11
55.4161311986
 21
187.7987305594
 31
0.0
  0
POLYLINE
  5
194
  8
SK2
  6
CONTINUOUS
 62
     7
 66
     1
 10
0.0
 20
0.0
 30
0.0
  0
VERTEX
  5
39D
  8
SK2
  6
CONTINUOUS
 62
     7
 10
62.6425442991
 20
191.7092922682
 30
0.0
  0
VERTEX
  5
39E
  8
SK2
  6
CONTINUOUS
 62
     7
 10
62.5612731307
 20
191.8980638285
 30
0.0
  0
VERTEX
  5
39F
  8
SK2
  6
CONTINUOUS
 62
     7
 10
62.4802294596
 20
192.0666921079
 30
0.0
  0
VERTEX
  5
3A0
  8
SK2
  6
CONTINUOUS
 62
     7
 10
62.3984314354
 20
192.2168581542
 30
0.0
  0
VERTEX
  5
3A1
  8
SK2
  6
CONTINUOUS
 62
     7
 10
62.3148972074
 20
192.350243015
 30
0.0
  0
VERTEX
  5
3A2
  8
SK2
  6
CONTINUOUS
 62
     7
 10
62.2286449248
 20
192.4685277383
 30
0.0
  0
VERTEX
  5
3A3
  8
SK2
  6
CONTINUOUS
 62
     7
 10
62.138692737
 20
192.5733933718
 30
0.0
  0
VERTEX
  5
3A4
  8
SK2
  6
CONTINUOUS
 62
     7
 10
62.0440587935
 20
192.6665209633
 30
0.0
  0
VERTEX
  5
3A5
  8
SK2
  6
CONTINUOUS
 62
     7
 10
61.9437612435
 20
192.7495915605
 30
0.0
  0
VERTEX
  5
3A6
  8
SK2
  6
CONTINUOUS
 62
     7
 10
61.8368182363
 20
192.8242862114
 30
0.0
  0
VERTEX
  5
3A7
  8
SK2
  6
CONTINUOUS
 62
     7
 10
61.7223082772
 20
192.8922183016
 30
0.0
  0
VERTEX
  5
3A8
  8
SK2
  6
CONTINUOUS
 62
     7
 10
61.6003366841
 20
192.9538501054
 30
0.0
  0
VERTEX
  5
3A9
  8
SK2
  6
CONTINUOUS
 62
     7
 10
61.4718676899
 20
193.0086810082
 30
0.0
  0
VERTEX
  5
3AA
  8
SK2
  6
CONTINUOUS
 62
     7
 10
61.3378919677
 20
193.0561807544
 30
0.0
  0
VERTEX
  5
3AB
  8
SK2
  6
CONTINUOUS
 62
     7
 10
61.1994001906
 20
193.0958190886
 30
0.0
  0
VERTEX
  5
3AC
  8
SK2
  6
CONTINUOUS
 62
     7
 10
61.0573830316
 20
193.1270657551
 30
0.0
  0
VERTEX
  5
3AD
  8
SK2
  6
CONTINUOUS
 62
     7
 10
60.9128311637
 20
193.1493904985
 30
0.0
  0
VERTEX
  5
3AE
  8
SK2
  6
CONTINUOUS
 62
     7
 10
60.7667352602
 20
193.1622630633
 30
0.0
  0
VERTEX
  5
3AF
  8
SK2
  6
CONTINUOUS
 62
     7
 10
60.6200859941
 20
193.1651531939
 30
0.0
  0
VERTEX
  5
3B0
  8
SK2
  6
CONTINUOUS
 62
     7
 10
60.4738302827
 20
193.1576269857
 30
0.0
  0
VERTEX
  5
3B1
  8
SK2
  6
CONTINUOUS
 62
     7
 10
60.3286376287
 20
193.1398614068
 30
0.0
  0
VERTEX
  5
3B2
  8
SK2
  6
CONTINUOUS
 62
     7
 10
60.185069151
 20
193.112272088
 30
0.0
  0
VERTEX
  5
3B3
  8
SK2
  6
CONTINUOUS
 62
     7
 10
60.0436857195
 20
193.0752752088
 30
0.0
  0
VERTEX
  5
3B4
  8
SK2
  6
CONTINUOUS
 62
     7
 10
59.905048204
 20
193.0292869487
 30
0.0
  0
VERTEX
  5
3B5
  8
SK2
  6
CONTINUOUS
 62
     7
 10
59.7697174744
 20
192.9747234871
 30
0.0
  0
VERTEX
  5
3B6
  8
SK2
  6
CONTINUOUS
 62
     7
 10
59.6382544005
 20
192.9120010036
 30
0.0
  0
VERTEX
  5
3B7
  8
SK2
  6
CONTINUOUS
 62
     7
 10
59.5112198521
 20
192.8415356775
 30
0.0
  0
VERTEX
  5
3B8
  8
SK2
  6
CONTINUOUS
 62
     7
 10
59.3891746991
 20
192.7637436886
 30
0.0
  0
VERTEX
  5
3B9
  8
SK2
  6
CONTINUOUS
 62
     7
 10
59.2726798113
 20
192.6790412161
 30
0.0
  0
VERTEX
  5
3BA
  8
SK2
  6
CONTINUOUS
 62
     7
 10
59.1622960586
 20
192.5878444396
 30
0.0
  0
VERTEX
  5
3BB
  8
SK2
  6
CONTINUOUS
 62
     7
 10
59.0585843108
 20
192.4905695387
 30
0.0
  0
VERTEX
  5
3BC
  8
SK2
  6
CONTINUOUS
 62
     7
 10
58.9621054377
 20
192.3876326927
 30
0.0
  0
VERTEX
  5
3BD
  8
SK2
  6
CONTINUOUS
 62
     7
 10
58.8733344978
 20
192.2794490922
 30
0.0
  0
VERTEX
  5
3BE
  8
SK2
  6
CONTINUOUS
 62
     7
 10
58.7921705982
 20
192.1664272898
 30
0.0
  0
VERTEX
  5
3BF
  8
SK2
  6
CONTINUOUS
 62
     7
 10
58.7182758549
 20
192.0489731068
 30
0.0
  0
VERTEX
  5
3C0
  8
SK2
  6
CONTINUOUS
 62
     7
 10
58.6513116514
 20
191.927492356
 30
0.0
  0
VERTEX
  5
3C1
  8
SK2
  6
CONTINUOUS
 62
     7
 10
58.590939371
 20
191.8023908502
 30
0.0
  0
VERTEX
  5
3C2
  8
SK2
  6
CONTINUOUS
 62
     7
 10
58.5368203971
 20
191.6740744022
 30
0.0
  0
VERTEX
  5
3C3
  8
SK2
  6
CONTINUOUS
 62
     7
 10
58.4886161131
 20
191.5429488249
 30
0.0
  0
VERTEX
  5
3C4
  8
SK2
  6
CONTINUOUS
 62
     7
 10
58.4459879023
 20
191.4094199311
 30
0.0
  0
VERTEX
  5
3C5
  8
SK2
  6
CONTINUOUS
 62
     7
 10
58.4085971483
 20
191.2738935335
 30
0.0
  0
VERTEX
  5
3C6
  8
SK2
  6
CONTINUOUS
 62
     7
 10
58.3761052343
 20
191.1367754451
 30
0.0
  0
VERTEX
  5
3C7
  8
SK2
  6
CONTINUOUS
 62
     7
 10
58.3482364752
 20
190.9984458361
 30
0.0
  0
VERTEX
  5
3C8
  8
SK2
  6
CONTINUOUS
 62
     7
 10
58.3249985993
 20
190.859169395
 30
0.0
  0
VERTEX
  5
3C9
  8
SK2
  6
CONTINUOUS
 62
     7
 10
58.306479082
 20
190.7191783161
 30
0.0
  0
VERTEX
  5
3CA
  8
SK2
  6
CONTINUOUS
 62
     7
 10
58.2927654032
 20
190.5787047915
 30
0.0
  0
VERTEX
  5
3CB
  8
SK2
  6
CONTINUOUS
 62
     7
 10
58.2839450429
 20
190.4379810135
 30
0.0
  0
VERTEX
  5
3CC
  8
SK2
  6
CONTINUOUS
 62
     7
 10
58.280105481
 20
190.2972391746
 30
0.0
  0
VERTEX
  5
3CD
  8
SK2
  6
CONTINUOUS
 62
     7
 10
58.2813341973
 20
190.1567114671
 30
0.0
  0
VERTEX
  5
3CE
  8
SK2
  6
CONTINUOUS
 62
     7
 10
58.2877186718
 20
190.0166300831
 30
0.0
  0
VERTEX
  5
3CF
  8
SK2
  6
CONTINUOUS
 62
     7
 10
58.2993463844
 20
189.8772272152
 30
0.0
  0
VERTEX
  5
3D0
  8
SK2
  6
CONTINUOUS
 62
     7
 10
58.316304815
 20
189.7387350555
 30
0.0
  0
VERTEX
  5
3D1
  8
SK2
  6
CONTINUOUS
 62
     7
 10
58.3386814436
 20
189.6013857963
 30
0.0
  0
VERTEX
  5
3D2
  8
SK2
  6
CONTINUOUS
 62
     7
 10
58.3665637499
 20
189.4654116301
 30
0.0
  0
VERTEX
  5
3D3
  8
SK2
  6
CONTINUOUS
 62
     7
 10
58.4000392141
 20
189.3310447491
 30
0.0
  0
VERTEX
  5
3D4
  8
SK2
  6
CONTINUOUS
 62
     7
 10
58.4391878546
 20
189.1985212238
 30
0.0
  0
VERTEX
  5
3D5
  8
SK2
  6
CONTINUOUS
 62
     7
 10
58.4840299572
 20
189.0681081724
 30
0.0
  0
VERTEX
  5
3D6
  8
SK2
  6
CONTINUOUS
 62
     7
 10
58.5345571279
 20
188.9400876201
 30
0.0
  0
VERTEX
  5
3D7
  8
SK2
  6
CONTINUOUS
 62
     7
 10
58.5907607911
 20
188.8147416863
 30
0.0
  0
VERTEX
  5
3D8
  8
SK2
  6
CONTINUOUS
 62
     7
 10
58.6526323713
 20
188.6923524906
 30
0.0
  0
VERTEX
  5
3D9
  8
SK2
  6
CONTINUOUS
 62
     7
 10
58.7201632928
 20
188.5732021526
 30
0.0
  0
VERTEX
  5
3DA
  8
SK2
  6
CONTINUOUS
 62
     7
 10
58.7933449801
 20
188.4575727919
 30
0.0
  0
VERTEX
  5
3DB
  8
SK2
  6
CONTINUOUS
 62
     7
 10
58.8721688575
 20
188.3457465279
 30
0.0
  0
VERTEX
  5
3DC
  8
SK2
  6
CONTINUOUS
 62
     7
 10
58.9566263494
 20
188.2380054802
 30
0.0
  0
VERTEX
  5
3DD
  8
SK2
  6
CONTINUOUS
 62
     7
 10
59.0467057192
 20
188.1346521516
 30
0.0
  0
VERTEX
  5
3DE
  8
SK2
  6
CONTINUOUS
 62
     7
 10
59.1423714038
 20
188.0361426739
 30
0.0
  0
VERTEX
  5
3DF
  8
SK2
  6
CONTINUOUS
 62
     7
 10
59.2435769774
 20
187.9430032218
 30
0.0
  0
VERTEX
  5
3E0
  8
SK2
  6
CONTINUOUS
 62
     7
 10
59.3502759589
 20
187.8557603265
 30
0.0
  0
VERTEX
  5
3E1
  8
SK2
  6
CONTINUOUS
 62
     7
 10
59.4624218673
 20
187.7749405192
 30
0.0
  0
VERTEX
  5
3E2
  8
SK2
  6
CONTINUOUS
 62
     7
 10
59.5799682215
 20
187.7010703312
 30
0.0
  0
VERTEX
  5
3E3
  8
SK2
  6
CONTINUOUS
 62
     7
 10
59.7028685403
 20
187.6346762936
 30
0.0
  0
VERTEX
  5
3E4
  8
SK2
  6
CONTINUOUS
 62
     7
 10
59.8310763426
 20
187.5762849377
 30
0.0
  0
VERTEX
  5
3E5
  8
SK2
  6
CONTINUOUS
 62
     7
 10
59.9645081068
 20
187.5263988997
 30
0.0
  0
VERTEX
  5
3E6
  8
SK2
  6
CONTINUOUS
 62
     7
 10
60.1026522527
 20
187.4852446749
 30
0.0
  0
VERTEX
  5
3E7
  8
SK2
  6
CONTINUOUS
 62
     7
 10
60.2447222349
 20
187.4528713777
 30
0.0
  0
VERTEX
  5
3E8
  8
SK2
  6
CONTINUOUS
 62
     7
 10
60.3899269785
 20
187.4293252011
 30
0.0
  0
VERTEX
  5
3E9
  8
SK2
  6
CONTINUOUS
 62
     7
 10
60.537475409
 20
187.4146523377
 30
0.0
  0
VERTEX
  5
3EA
  8
SK2
  6
CONTINUOUS
 62
     7
 10
60.6865764516
 20
187.4088989803
 30
0.0
  0
VERTEX
  5
3EB
  8
SK2
  6
CONTINUOUS
 62
     7
 10
60.8364390315
 20
187.4121113218
 30
0.0
  0
VERTEX
  5
3EC
  8
SK2
  6
CONTINUOUS
 62
     7
 10
60.9862720742
 20
187.424335555
 30
0.0
  0
VERTEX
  5
3ED
  8
SK2
  6
CONTINUOUS
 62
     7
 10
61.1352845049
 20
187.4456178726
 30
0.0
  0
VERTEX
  5
3EE
  8
SK2
  6
CONTINUOUS
 62
     7
 10
61.282685249
 20
187.4760044674
 30
0.0
  0
VERTEX
  5
3EF
  8
SK2
  6
CONTINUOUS
 62
     7
 10
61.4276832316
 20
187.5155415323
 30
0.0
  0
VERTEX
  5
3F0
  8
SK2
  6
CONTINUOUS
 62
     7
 10
61.56940339
 20
187.5642495037
 30
0.0
  0
VERTEX
  5
3F1
  8
SK2
  6
CONTINUOUS
 62
     7
 10
61.7066425662
 20
187.6220482026
 30
0.0
  0
VERTEX
  5
3F2
  8
SK2
  6
CONTINUOUS
 62
     7
 10
61.8381174971
 20
187.6888328844
 30
0.0
  0
VERTEX
  5
3F3
  8
SK2
  6
CONTINUOUS
 62
     7
 10
61.9625449194
 20
187.7644988047
 30
0.0
  0
VERTEX
  5
3F4
  8
SK2
  6
CONTINUOUS
 62
     7
 10
62.07864157
 20
187.8489412188
 30
0.0
  0
VERTEX
  5
3F5
  8
SK2
  6
CONTINUOUS
 62
     7
 10
62.1851241858
 20
187.9420553823
 30
0.0
  0
VERTEX
  5
3F6
  8
SK2
  6
CONTINUOUS
 62
     7
 10
62.2807291651
 20
188.0437445491
 30
0.0
  0
VERTEX
  5
3F7
  8
SK2
  6
CONTINUOUS
 62
     7
 10
62.3646386632
 20
188.154093317
 30
0.0
  0
VERTEX
  5
3F8
  8
SK2
  6
CONTINUOUS
 62
     7
 10
62.4364770347
 20
188.2733661794
 30
0.0
  0
VERTEX
  5
3F9
  8
SK2
  6
CONTINUOUS
 62
     7
 10
62.4958875841
 20
188.401835339
 30
0.0
  0
VERTEX
  5
3FA
  8
SK2
  6
CONTINUOUS
 62
     7
 10
62.542513616
 20
188.5397729988
 30
0.0
  0
VERTEX
  5
3FB
  8
SK2
  6
CONTINUOUS
 62
     7
 10
62.5759984349
 20
188.6874513614
 30
0.0
  0
VERTEX
  5
3FC
  8
SK2
  6
CONTINUOUS
 62
     7
 10
62.5959853452
 20
188.8451426295
 30
0.0
  0
VERTEX
  5
3FD
  8
SK2
  6
CONTINUOUS
 62
     7
 10
62.6021176516
 20
189.013119006
 30
0.0
  0
SEQEND
  5
85F
  8
SK2
  6
CONTINUOUS
 62
     7
  0
LINE
  5
195
  8
SK2
  6
CONTINUOUS
 62
     7
 10
62.6425442991
 20
191.7092922682
 30
0.0
 11
64.9049961085
 21
192.6489136255
 31
0.0
  0
POLYLINE
  5
196
  8
SK2
  6
CONTINUOUS
 62
     7
 66
     1
 10
0.0
 20
0.0
 30
0.0
  0
VERTEX
  5
3FE
  8
SK2
  6
CONTINUOUS
 62
     7
 10
65.395323693
 20
190.8766363853
 30
0.0
  0
VERTEX
  5
3FF
  8
SK2
  6
CONTINUOUS
 62
     7
 10
65.3968312269
 20
190.6475621987
 30
0.0
  0
VERTEX
  5
400
  8
SK2
  6
CONTINUOUS
 62
     7
 10
65.3959494418
 20
190.4249454979
 30
0.0
  0
VERTEX
  5
401
  8
SK2
  6
CONTINUOUS
 62
     7
 10
65.3918931285
 20
190.2079364514
 30
0.0
  0
VERTEX
  5
402
  8
SK2
  6
CONTINUOUS
 62
     7
 10
65.3838770779
 20
189.9956852278
 30
0.0
  0
VERTEX
  5
403
  8
SK2
  6
CONTINUOUS
 62
     7
 10
65.3711160809
 20
189.7873419958
 30
0.0
  0
VERTEX
  5
404
  8
SK2
  6
CONTINUOUS
 62
     7
 10
65.3528249285
 20
189.5820569239
 30
0.0
  0
VERTEX
  5
405
  8
SK2
  6
CONTINUOUS
 62
     7
 10
65.3282184116
 20
189.3789801808
 30
0.0
  0
VERTEX
  5
406
  8
SK2
  6
CONTINUOUS
 62
     7
 10
65.296511321
 20
189.177261935
 30
0.0
  0
VERTEX
  5
407
  8
SK2
  6
CONTINUOUS
 62
     7
 10
65.2569184476
 20
188.9760523551
 30
0.0
  0
VERTEX
  5
408
  8
SK2
  6
CONTINUOUS
 62
     7
 10
65.2086903019
 20
188.7745810811
 30
0.0
  0
VERTEX
  5
409
  8
SK2
  6
CONTINUOUS
 62
     7
 10
65.1515143812
 20
188.5730499938
 30
0.0
  0
VERTEX
  5
40A
  8
SK2
  6
CONTINUOUS
 62
     7
 10
65.0853707923
 20
188.3723119934
 30
0.0
  0
VERTEX
  5
40B
  8
SK2
  6
CONTINUOUS
 62
     7
 10
65.0102450224
 20
188.1732319502
 30
0.0
  0
VERTEX
  5
40C
  8
SK2
  6
CONTINUOUS
 62
     7
 10
64.9261225584
 20
187.9766747344
 30
0.0
  0
VERTEX
  5
40D
  8
SK2
  6
CONTINUOUS
 62
     7
 10
64.8329888873
 20
187.7835052163
 30
0.0
  0
VERTEX
  5
40E
  8
SK2
  6
CONTINUOUS
 62
     7
 10
64.7308294962
 20
187.594588266
 30
0.0
  0
VERTEX
  5
40F
  8
SK2
  6
CONTINUOUS
 62
     7
 10
64.619629872
 20
187.4107887539
 30
0.0
  0
VERTEX
  5
410
  8
SK2
  6
CONTINUOUS
 62
     7
 10
64.4993755017
 20
187.23297155
 30
0.0
  0
VERTEX
  5
411
  8
SK2
  6
CONTINUOUS
 62
     7
 10
64.3700734626
 20
187.0619781452
 30
0.0
  0
VERTEX
  5
412
  8
SK2
  6
CONTINUOUS
 62
     7
 10
64.2320129143
 20
186.8983445695
 30
0.0
  0
VERTEX
  5
413
  8
SK2
  6
CONTINUOUS
 62
     7
 10
64.0856809491
 20
186.7423925169
 30
0.0
  0
VERTEX
  5
414
  8
SK2
  6
CONTINUOUS
 62
     7
 10
63.9315687544
 20
186.5944392463
 30
0.0
  0
VERTEX
  5
415
  8
SK2
  6
CONTINUOUS
 62
     7
 10
63.7701675176
 20
186.454802017
 30
0.0
  0
VERTEX
  5
416
  8
SK2
  6
CONTINUOUS
 62
     7
 10
63.6019684263
 20
186.323798088
 30
0.0
  0
VERTEX
  5
417
  8
SK2
  6
CONTINUOUS
 62
     7
 10
63.4274626677
 20
186.2017447184
 30
0.0
  0
VERTEX
  5
418
  8
SK2
  6
CONTINUOUS
 62
     7
 10
63.2471414295
 20
186.0889591673
 30
0.0
  0
VERTEX
  5
419
  8
SK2
  6
CONTINUOUS
 62
     7
 10
63.061495899
 20
185.9857586938
 30
0.0
  0
VERTEX
  5
41A
  8
SK2
  6
CONTINUOUS
 62
     7
 10
62.8710118672
 20
185.8924243754
 30
0.0
  0
VERTEX
  5
41B
  8
SK2
  6
CONTINUOUS
 62
     7
 10
62.6761231832
 20
185.8088890395
 30
0.0
  0
VERTEX
  5
41C
  8
SK2
  6
CONTINUOUS
 62
     7
 10
62.477234687
 20
185.7348910172
 30
0.0
  0
VERTEX
  5
41D
  8
SK2
  6
CONTINUOUS
 62
     7
 10
62.2747509022
 20
185.6701665192
 30
0.0
  0
VERTEX
  5
41E
  8
SK2
  6
CONTINUOUS
 62
     7
 10
62.0690763523
 20
185.6144517561
 30
0.0
  0
VERTEX
  5
41F
  8
SK2
  6
CONTINUOUS
 62
     7
 10
61.8606155611
 20
185.5674829387
 30
0.0
  0
VERTEX
  5
420
  8
SK2
  6
CONTINUOUS
 62
     7
 10
61.649773052
 20
185.5289962775
 30
0.0
  0
VERTEX
  5
421
  8
SK2
  6
CONTINUOUS
 62
     7
 10
61.4369533489
 20
185.4987279833
 30
0.0
  0
VERTEX
  5
422
  8
SK2
  6
CONTINUOUS
 62
     7
 10
61.2225609752
 20
185.4764142667
 30
0.0
  0
VERTEX
  5
423
  8
SK2
  6
CONTINUOUS
 62
     7
 10
61.0070004547
 20
185.4617913385
 30
0.0
  0
VERTEX
  5
424
  8
SK2
  6
CONTINUOUS
 62
     7
 10
60.7906763108
 20
185.4545954091
 30
0.0
  0
VERTEX
  5
425
  8
SK2
  6
CONTINUOUS
 62
     7
 10
60.5739934004
 20
185.4545660131
 30
0.0
  0
VERTEX
  5
426
  8
SK2
  6
CONTINUOUS
 62
     7
 10
60.3573738523
 20
185.4616150351
 30
0.0
  0
VERTEX
  5
427
  8
SK2
  6
CONTINUOUS
 62
     7
 10
60.1412651139
 20
185.4759070043
 30
0.0
  0
VERTEX
  5
428
  8
SK2
  6
CONTINUOUS
 62
     7
 10
59.9261166494
 20
185.4976265718
 30
0.0
  0
VERTEX
  5
429
  8
SK2
  6
CONTINUOUS
 62
     7
 10
59.7123779228
 20
185.526958389
 30
0.0
  0
VERTEX
  5
42A
  8
SK2
  6
CONTINUOUS
 62
     7
 10
59.5004983983
 20
185.5640871072
 30
0.0
  0
VERTEX
  5
42B
  8
SK2
  6
CONTINUOUS
 62
     7
 10
59.2909275399
 20
185.6091973777
 30
0.0
  0
VERTEX
  5
42C
  8
SK2
  6
CONTINUOUS
 62
     7
 10
59.0841148118
 20
185.6624738518
 30
0.0
  0
VERTEX
  5
42D
  8
SK2
  6
CONTINUOUS
 62
     7
 10
58.8805096779
 20
185.7241011806
 30
0.0
  0
VERTEX
  5
42E
  8
SK2
  6
CONTINUOUS
 62
     7
 10
58.6805616025
 20
185.7942640157
 30
0.0
  0
VERTEX
  5
42F
  8
SK2
  6
CONTINUOUS
 62
     7
 10
58.4847200495
 20
185.8731470081
 30
0.0
  0
VERTEX
  5
430
  8
SK2
  6
CONTINUOUS
 62
     7
 10
58.2934325925
 20
185.9609208212
 30
0.0
  0
VERTEX
  5
431
  8
SK2
  6
CONTINUOUS
 62
     7
 10
58.1071172289
 20
186.0575373013
 30
0.0
  0
VERTEX
  5
432
  8
SK2
  6
CONTINUOUS
 62
     7
 10
57.9261685126
 20
186.1627748464
 30
0.0
  0
VERTEX
  5
433
  8
SK2
  6
CONTINUOUS
 62
     7
 10
57.7509803538
 20
186.2764070941
 30
0.0
  0
VERTEX
  5
434
  8
SK2
  6
CONTINUOUS
 62
     7
 10
57.581946663
 20
186.398207682
 30
0.0
  0
VERTEX
  5
435
  8
SK2
  6
CONTINUOUS
 62
     7
 10
57.4194613505
 20
186.5279502477
 30
0.0
  0
VERTEX
  5
436
  8
SK2
  6
CONTINUOUS
 62
     7
 10
57.2639183266
 20
186.6654084288
 30
0.0
  0
VERTEX
  5
437
  8
SK2
  6
CONTINUOUS
 62
     7
 10
57.1157115018
 20
186.8103558629
 30
0.0
  0
VERTEX
  5
438
  8
SK2
  6
CONTINUOUS
 62
     7
 10
56.975229098
 20
186.9625630679
 30
0.0
  0
VERTEX
  5
439
  8
SK2
  6
CONTINUOUS
 62
     7
 10
56.8426976685
 20
187.1217118961
 30
0.0
  0
VERTEX
  5
43A
  8
SK2
  6
CONTINUOUS
 62
     7
 10
56.7181628457
 20
187.2873849757
 30
0.0
  0
VERTEX
  5
43B
  8
SK2
  6
CONTINUOUS
 62
     7
 10
56.6016607084
 20
187.4591596952
 30
0.0
  0
VERTEX
  5
43C
  8
SK2
  6
CONTINUOUS
 62
     7
 10
56.4932273351
 20
187.6366134431
 30
0.0
  0
VERTEX
  5
43D
  8
SK2
  6
CONTINUOUS
 62
     7
 10
56.3928988047
 20
187.819323608
 30
0.0
  0
VERTEX
  5
43E
  8
SK2
  6
CONTINUOUS
 62
     7
 10
56.3007111957
 20
188.0068675783
 30
0.0
  0
VERTEX
  5
43F
  8
SK2
  6
CONTINUOUS
 62
     7
 10
56.2167005869
 20
188.1988227427
 30
0.0
  0
VERTEX
  5
440
  8
SK2
  6
CONTINUOUS
 62
     7
 10
56.140903057
 20
188.3947664895
 30
0.0
  0
VERTEX
  5
441
  8
SK2
  6
CONTINUOUS
 62
     7
 10
56.0733331285
 20
188.5942922601
 30
0.0
  0
VERTEX
  5
442
  8
SK2
  6
CONTINUOUS
 62
     7
 10
56.0138782273
 20
188.7970881443
 30
0.0
  0
VERTEX
  5
443
  8
SK2
  6
CONTINUOUS
 62
     7
 10
55.9623793581
 20
189.0028768016
 30
0.0
  0
VERTEX
  5
444
  8
SK2
  6
CONTINUOUS
 62
     7
 10
55.9186774569
 20
189.2113809424
 30
0.0
  0
VERTEX
  5
445
  8
SK2
  6
CONTINUOUS
 62
     7
 10
55.8826134601
 20
189.4223232773
 30
0.0
  0
VERTEX
  5
446
  8
SK2
  6
CONTINUOUS
 62
     7
 10
55.8540283038
 20
189.6354265166
 30
0.0
  0
VERTEX
  5
447
  8
SK2
  6
CONTINUOUS
 62
     7
 10
55.8327629243
 20
189.8504133708
 30
0.0
  0
VERTEX
  5
448
  8
SK2
  6
CONTINUOUS
 62
     7
 10
55.8186582578
 20
190.0670065505
 30
0.0
  0
VERTEX
  5
449
  8
SK2
  6
CONTINUOUS
 62
     7
 10
55.8115552405
 20
190.284928766
 30
0.0
  0
VERTEX
  5
44A
  8
SK2
  6
CONTINUOUS
 62
     7
 10
55.8113792134
 20
190.5038697054
 30
0.0
  0
VERTEX
  5
44B
  8
SK2
  6
CONTINUOUS
 62
     7
 10
55.8184284736
 20
190.7233731428
 30
0.0
  0
VERTEX
  5
44C
  8
SK2
  6
CONTINUOUS
 62
     7
 10
55.8331042963
 20
190.9429425629
 30
0.0
  0
VERTEX
  5
44D
  8
SK2
  6
CONTINUOUS
 62
     7
 10
55.8558079604
 20
191.1620814493
 30
0.0
  0
VERTEX
  5
44E
  8
SK2
  6
CONTINUOUS
 62
     7
 10
55.8869407448
 20
191.3802932855
 30
0.0
  0
VERTEX
  5
44F
  8
SK2
  6
CONTINUOUS
 62
     7
 10
55.9269039282
 20
191.597081555
 30
0.0
  0
VERTEX
  5
450
  8
SK2
  6
CONTINUOUS
 62
     7
 10
55.9760987895
 20
191.8119497415
 30
0.0
  0
VERTEX
  5
451
  8
SK2
  6
CONTINUOUS
 62
     7
 10
56.0349266074
 20
192.0244013284
 30
0.0
  0
VERTEX
  5
452
  8
SK2
  6
CONTINUOUS
 62
     7
 10
56.1037886609
 20
192.2339397993
 30
0.0
  0
VERTEX
  5
453
  8
SK2
  6
CONTINUOUS
 62
     7
 10
56.1830862286
 20
192.4400686376
 30
0.0
  0
VERTEX
  5
454
  8
SK2
  6
CONTINUOUS
 62
     7
 10
56.2732204916
 20
192.6422913154
 30
0.0
  0
VERTEX
  5
455
  8
SK2
  6
CONTINUOUS
 62
     7
 10
56.3743590243
 20
192.8400834383
 30
0.0
  0
VERTEX
  5
456
  8
SK2
  6
CONTINUOUS
 62
     7
 10
56.485935054
 20
193.0328330144
 30
0.0
  0
VERTEX
  5
457
  8
SK2
  6
CONTINUOUS
 62
     7
 10
56.6072378823
 20
193.2199108835
 30
0.0
  0
VERTEX
  5
458
  8
SK2
  6
CONTINUOUS
 62
     7
 10
56.7375568109
 20
193.4006878853
 30
0.0
  0
VERTEX
  5
459
  8
SK2
  6
CONTINUOUS
 62
     7
 10
56.8761811413
 20
193.5745348594
 30
0.0
  0
VERTEX
  5
45A
  8
SK2
  6
CONTINUOUS
 62
     7
 10
57.0224001754
 20
193.7408226456
 30
0.0
  0
VERTEX
  5
45B
  8
SK2
  6
CONTINUOUS
 62
     7
 10
57.1755032146
 20
193.8989220836
 30
0.0
  0
VERTEX
  5
45C
  8
SK2
  6
CONTINUOUS
 62
     7
 10
57.3347867242
 20
194.0482178304
 30
0.0
  0
VERTEX
  5
45D
  8
SK2
  6
CONTINUOUS
 62
     7
 10
57.4997096168
 20
194.1884078837
 30
0.0
  0
VERTEX
  5
45E
  8
SK2
  6
CONTINUOUS
 62
     7
 10
57.6698919803
 20
194.3195011274
 30
0.0
  0
VERTEX
  5
45F
  8
SK2
  6
CONTINUOUS
 62
     7
 10
57.8449608112
 20
194.4415197714
 30
0.0
  0
VERTEX
  5
460
  8
SK2
  6
CONTINUOUS
 62
     7
 10
58.0245431061
 20
194.5544860255
 30
0.0
  0
VERTEX
  5
461
  8
SK2
  6
CONTINUOUS
 62
     7
 10
58.2082658616
 20
194.6584220996
 30
0.0
  0
VERTEX
  5
462
  8
SK2
  6
CONTINUOUS
 62
     7
 10
58.3957560744
 20
194.7533502038
 30
0.0
  0
VERTEX
  5
463
  8
SK2
  6
CONTINUOUS
 62
     7
 10
58.5866407408
 20
194.8392925479
 30
0.0
  0
VERTEX
  5
464
  8
SK2
  6
CONTINUOUS
 62
     7
 10
58.7805468577
 20
194.9162713417
 30
0.0
  0
VERTEX
  5
465
  8
SK2
  6
CONTINUOUS
 62
     7
 10
58.977118444
 20
194.9843440522
 30
0.0
  0
VERTEX
  5
466
  8
SK2
  6
CONTINUOUS
 62
     7
 10
59.1760872995
 20
195.0437499558
 30
0.0
  0
VERTEX
  5
467
  8
SK2
  6
CONTINUOUS
 62
     7
 10
59.3772134374
 20
195.0947867643
 30
0.0
  0
VERTEX
  5
468
  8
SK2
  6
CONTINUOUS
 62
     7
 10
59.5802568841
 20
195.1377522168
 30
0.0
  0
VERTEX
  5
469
  8
SK2
  6
CONTINUOUS
 62
     7
 10
59.7849776658
 20
195.1729440526
 30
0.0
  0
VERTEX
  5
46A
  8
SK2
  6
CONTINUOUS
 62
     7
 10
59.9911358092
 20
195.2006600109
 30
0.0
  0
VERTEX
  5
46B
  8
SK2
  6
CONTINUOUS
 62
     7
 10
60.1984913404
 20
195.2211978308
 30
0.0
  0
VERTEX
  5
46C
  8
SK2
  6
CONTINUOUS
 62
     7
 10
60.4068042861
 20
195.2348552516
 30
0.0
  0
VERTEX
  5
46D
  8
SK2
  6
CONTINUOUS
 62
     7
 10
60.6158346725
 20
195.2419300126
 30
0.0
  0
VERTEX
  5
46E
  8
SK2
  6
CONTINUOUS
 62
     7
 10
60.8253423252
 20
195.2427191187
 30
0.0
  0
VERTEX
  5
46F
  8
SK2
  6
CONTINUOUS
 62
     7
 10
61.0350309562
 20
195.2373145326
 30
0.0
  0
VERTEX
  5
470
  8
SK2
  6
CONTINUOUS
 62
     7
 10
61.2444716831
 20
195.2253237064
 30
0.0
  0
VERTEX
  5
471
  8
SK2
  6
CONTINUOUS
 62
     7
 10
61.4532164769
 20
195.2062841288
 30
0.0
  0
VERTEX
  5
472
  8
SK2
  6
CONTINUOUS
 62
     7
 10
61.6608173083
 20
195.1797332888
 30
0.0
  0
VERTEX
  5
473
  8
SK2
  6
CONTINUOUS
 62
     7
 10
61.8668261483
 20
195.1452086753
 30
0.0
  0
VERTEX
  5
474
  8
SK2
  6
CONTINUOUS
 62
     7
 10
62.0707949678
 20
195.1022477772
 30
0.0
  0
VERTEX
  5
475
  8
SK2
  6
CONTINUOUS
 62
     7
 10
62.2722757377
 20
195.0503880834
 30
0.0
  0
VERTEX
  5
476
  8
SK2
  6
CONTINUOUS
 62
     7
 10
62.4708204289
 20
194.9891670829
 30
0.0
  0
VERTEX
  5
477
  8
SK2
  6
CONTINUOUS
 62
     7
 10
62.6659810124
 20
194.9181222645
 30
0.0
  0
VERTEX
  5
478
  8
SK2
  6
CONTINUOUS
 62
     7
 10
62.8573094589
 20
194.8367911171
 30
0.0
  0
VERTEX
  5
479
  8
SK2
  6
CONTINUOUS
 62
     7
 10
63.0443325451
 20
194.7448426718
 30
0.0
  0
VERTEX
  5
47A
  8
SK2
  6
CONTINUOUS
 62
     7
 10
63.2264216009
 20
194.6427575546
 30
0.0
  0
VERTEX
  5
47B
  8
SK2
  6
CONTINUOUS
 62
     7
 10
63.4028887294
 20
194.53132562
 30
0.0
  0
VERTEX
  5
47C
  8
SK2
  6
CONTINUOUS
 62
     7
 10
63.5730459172
 20
194.41133733
 30
0.0
  0
VERTEX
  5
47D
  8
SK2
  6
CONTINUOUS
 62
     7
 10
63.736205151
 20
194.2835831469
 30
0.0
  0
VERTEX
  5
47E
  8
SK2
  6
CONTINUOUS
 62
     7
 10
63.8916789066
 20
194.1488525233
 30
0.0
  0
VERTEX
  5
47F
  8
SK2
  6
CONTINUOUS
 62
     7
 10
64.0391209844
 20
194.0072303522
 30
0.0
  0
VERTEX
  5
480
  8
SK2
  6
CONTINUOUS
 62
     7
 10
64.1791233009
 20
193.8568650772
 30
0.0
  0
VERTEX
  5
481
  8
SK2
  6
CONTINUOUS
 62
     7
 10
64.3124375327
 20
193.6955753659
 30
0.0
  0
VERTEX
  5
482
  8
SK2
  6
CONTINUOUS
 62
     7
 10
64.4398153566
 20
193.5211798856
 30
0.0
  0
VERTEX
  5
483
  8
SK2
  6
CONTINUOUS
 62
     7
 10
64.5620084494
 20
193.331497304
 30
0.0
  0
VERTEX
  5
484
  8
SK2
  6
CONTINUOUS
 62
     7
 10
64.6797684878
 20
193.1243462884
 30
0.0
  0
VERTEX
  5
485
  8
SK2
  6
CONTINUOUS
 62
     7
 10
64.7938471486
 20
192.8975455064
 30
0.0
  0
VERTEX
  5
486
  8
SK2
  6
CONTINUOUS
 62
     7
 10
64.9049961085
 20
192.6489136255
 30
0.0
  0
SEQEND
  5
85E
  8
SK2
  6
CONTINUOUS
 62
     7
  0
LINE
  5
197
  8
SK2
  6
CONTINUOUS
 62
     7
 10
60.6775074844
 20
190.8766363853
 30
0.0
 11
65.395323693
 21
190.8766363853
 31
0.0
  0
LINE
  5
198
  8
SK2
  6
CONTINUOUS
 62
     7
 10
60.6775074844
 20
189.013119006
 30
0.0
 11
60.6775074844
 21
190.8766363853
 31
0.0
  0
LINE
  5
199
  8
SK2
  6
CONTINUOUS
 62
     7
 10
62.6021176516
 20
189.013119006
 30
0.0
 11
60.6775074844
 21
189.013119006
 31
0.0
  0
POLYLINE
  5
19A
  8
SK2
  6
CONTINUOUS
 62
     7
 66
     1
 10
0.0
 20
0.0
 30
0.0
  0
VERTEX
  5
487
  8
SK2
  6
CONTINUOUS
 62
     7
 10
70.9604946132
 20
185.470644977
 30
0.0
  0
VERTEX
  5
488
  8
SK2
  6
CONTINUOUS
 62
     7
 10
70.6835682724
 20
185.4783475885
 30
0.0
  0
VERTEX
  5
489
  8
SK2
  6
CONTINUOUS
 62
     7
 10
70.3990528835
 20
185.5017571317
 30
0.0
  0
VERTEX
  5
48A
  8
SK2
  6
CONTINUOUS
 62
     7
 10
70.1080656771
 20
185.5421820866
 30
0.0
  0
VERTEX
  5
48B
  8
SK2
  6
CONTINUOUS
 62
     7
 10
69.8119462432
 20
185.6008677367
 30
0.0
  0
VERTEX
  5
48C
  8
SK2
  6
CONTINUOUS
 62
     7
 10
69.5122601605
 20
185.6789585571
 30
0.0
  0
VERTEX
  5
48D
  8
SK2
  6
CONTINUOUS
 62
     7
 10
69.2107954679
 20
185.7774573263
 30
0.0
  0
VERTEX
  5
48E
  8
SK2
  6
CONTINUOUS
 62
     7
 10
68.9095506764
 20
185.8971823107
 30
0.0
  0
VERTEX
  5
48F
  8
SK2
  6
CONTINUOUS
 62
     7
 10
68.6107132896
 20
186.0387243088
 30
0.0
  0
VERTEX
  5
490
  8
SK2
  6
CONTINUOUS
 62
     7
 10
68.3166282303
 20
186.2024057389
 30
0.0
  0
VERTEX
  5
491
  8
SK2
  6
CONTINUOUS
 62
     7
 10
68.0297561517
 20
186.3882442451
 30
0.0
  0
VERTEX
  5
492
  8
SK2
  6
CONTINUOUS
 62
     7
 10
67.7526223234
 20
186.5959234275
 30
0.0
  0
VERTEX
  5
493
  8
SK2
  6
CONTINUOUS
 62
     7
 10
67.4877575681
 20
186.8247732189
 30
0.0
  0
VERTEX
  5
494
  8
SK2
  6
CONTINUOUS
 62
     7
 10
67.2376335123
 20
187.0737620975
 30
0.0
  0
VERTEX
  5
495
  8
SK2
  6
CONTINUOUS
 62
     7
 10
67.0045951026
 20
187.3415027416
 30
0.0
  0
VERTEX
  5
496
  8
SK2
  6
CONTINUOUS
 62
     7
 10
66.7907938543
 20
187.6262719166
 30
0.0
  0
VERTEX
  5
497
  8
SK2
  6
CONTINUOUS
 62
     7
 10
66.5981255251
 20
187.9260444164
 30
0.0
  0
VERTEX
  5
498
  8
SK2
  6
CONTINUOUS
 62
     7
 10
66.4281758221
 20
188.2385398444
 30
0.0
  0
VERTEX
  5
499
  8
SK2
  6
CONTINUOUS
 62
     7
 10
66.2821773131
 20
188.5612800382
 30
0.0
  0
VERTEX
  5
49A
  8
SK2
  6
CONTINUOUS
 62
     7
 10
66.1609799728
 20
188.8916541303
 30
0.0
  0
VERTEX
  5
49B
  8
SK2
  6
CONTINUOUS
 62
     7
 10
66.0650368196
 20
189.2269876908
 30
0.0
  0
VERTEX
  5
49C
  8
SK2
  6
CONTINUOUS
 62
     7
 10
65.9944050048
 20
189.5646121823
 30
0.0
  0
VERTEX
  5
49D
  8
SK2
  6
CONTINUOUS
 62
     7
 10
65.9487616239
 20
189.9019310847
 30
0.0
  0
VERTEX
  5
49E
  8
SK2
  6
CONTINUOUS
 62
     7
 10
65.9274325546
 20
190.2364794911
 30
0.0
  0
VERTEX
  5
49F
  8
SK2
  6
CONTINUOUS
 62
     7
 10
65.9294318787
 20
190.5659746598
 30
0.0
  0
VERTEX
  5
4A0
  8
SK2
  6
CONTINUOUS
 62
     7
 10
65.9535089797
 20
190.8883558425
 30
0.0
  0
VERTEX
  5
4A1
  8
SK2
  6
CONTINUOUS
 62
     7
 10
65.9982002292
 20
191.2018125855
 30
0.0
  0
VERTEX
  5
4A2
  8
SK2
  6
CONTINUOUS
 62
     7
 10
66.061882282
 20
191.5048015284
 30
0.0
  0
VERTEX
  5
4A3
  8
SK2
  6
CONTINUOUS
 62
     7
 10
66.1428243126
 20
191.7960524275
 30
0.0
  0
VERTEX
  5
4A4
  8
SK2
  6
CONTINUOUS
 62
     7
 10
66.2392370032
 20
192.0745646634
 30
0.0
  0
VERTEX
  5
4A5
  8
SK2
  6
CONTINUOUS
 62
     7
 10
66.3493166447
 20
192.3395958361
 30
0.0
  0
VERTEX
  5
4A6
  8
SK2
  6
CONTINUOUS
 62
     7
 10
66.4712832766
 20
192.5906442124
 30
0.0
  0
VERTEX
  5
4A7
  8
SK2
  6
CONTINUOUS
 62
     7
 10
66.6034123207
 20
192.8274267973
 30
0.0
  0
VERTEX
  5
4A8
  8
SK2
  6
CONTINUOUS
 62
     7
 10
66.7487207275
 20
193.056791257
 30
0.0
  0
VERTEX
  5
4A9
  8
SK2
  6
CONTINUOUS
 62
     7
 10
66.9118113462
 20
193.2846926203
 30
0.0
  0
VERTEX
  5
4AA
  8
SK2
  6
CONTINUOUS
 62
     7
 10
67.0932909096
 20
193.5095356923
 30
0.0
  0
VERTEX
  5
4AB
  8
SK2
  6
CONTINUOUS
 62
     7
 10
67.2935987018
 20
193.7295696176
 30
0.0
  0
VERTEX
  5
4AC
  8
SK2
  6
CONTINUOUS
 62
     7
 10
67.5129712475
 20
193.942903632
 30
0.0
  0
VERTEX
  5
4AD
  8
SK2
  6
CONTINUOUS
 62
     7
 10
67.7514076627
 20
194.1475304798
 30
0.0
  0
VERTEX
  5
4AE
  8
SK2
  6
CONTINUOUS
 62
     7
 10
68.0086375179
 20
194.3413579198
 30
0.0
  0
VERTEX
  5
4AF
  8
SK2
  6
CONTINUOUS
 62
     7
 10
68.2840933214
 20
194.5222482949
 30
0.0
  0
VERTEX
  5
4B0
  8
SK2
  6
CONTINUOUS
 62
     7
 10
68.5768898694
 20
194.6880655799
 30
0.0
  0
VERTEX
  5
4B1
  8
SK2
  6
CONTINUOUS
 62
     7
 10
68.8858126771
 20
194.8367286893
 30
0.0
  0
VERTEX
  5
4B2
  8
SK2
  6
CONTINUOUS
 62
     7
 10
69.2093174663
 20
194.9662691595
 30
0.0
  0
VERTEX
  5
4B3
  8
SK2
  6
CONTINUOUS
 62
     7
 10
69.5455422172
 20
195.0748907025
 30
0.0
  0
VERTEX
  5
4B4
  8
SK2
  6
CONTINUOUS
 62
     7
 10
69.8923326063
 20
195.1610276293
 30
0.0
  0
VERTEX
  5
4B5
  8
SK2
  6
CONTINUOUS
 62
     7
 10
70.2472807787
 20
195.2233988538
 30
0.0
  0
VERTEX
  5
4B6
  8
SK2
  6
CONTINUOUS
 62
     7
 10
70.6077764323
 20
195.2610541642
 30
0.0
  0
VERTEX
  5
4B7
  8
SK2
  6
CONTINUOUS
 62
     7
 10
70.9710682043
 20
195.2734097388
 30
0.0
  0
VERTEX
  5
4B8
  8
SK2
  6
CONTINUOUS
 62
     7
 10
71.3343324767
 20
195.2602704765
 30
0.0
  0
VERTEX
  5
4B9
  8
SK2
  6
CONTINUOUS
 62
     7
 10
71.694746059
 20
195.2218375692
 30
0.0
  0
VERTEX
  5
4BA
  8
SK2
  6
CONTINUOUS
 62
     7
 10
72.0495588542
 20
195.1587007727
 30
0.0
  0
VERTEX
  5
4BB
  8
SK2
  6
CONTINUOUS
 62
     7
 10
72.3961626162
 20
195.0718159277
 30
0.0
  0
VERTEX
  5
4BC
  8
SK2
  6
CONTINUOUS
 62
     7
 10
72.7321522594
 20
194.9624693117
 30
0.0
  0
VERTEX
  5
4BD
  8
SK2
  6
CONTINUOUS
 62
     7
 10
73.0553768427
 20
194.8322312574
 30
0.0
  0
VERTEX
  5
4BE
  8
SK2
  6
CONTINUOUS
 62
     7
 10
73.363978226
 20
194.6829020658
 30
0.0
  0
VERTEX
  5
4BF
  8
SK2
  6
CONTINUOUS
 62
     7
 10
73.6564163809
 20
194.516453527
 30
0.0
  0
VERTEX
  5
4C0
  8
SK2
  6
CONTINUOUS
 62
     7
 10
73.931481315
 20
194.3349693417
 30
0.0
  0
VERTEX
  5
4C1
  8
SK2
  6
CONTINUOUS
 62
     7
 10
74.1882924345
 20
194.1405874398
 30
0.0
  0
VERTEX
  5
4C2
  8
SK2
  6
CONTINUOUS
 62
     7
 10
74.4262868607
 20
193.9354466978
 30
0.0
  0
VERTEX
  5
4C3
  8
SK2
  6
CONTINUOUS
 62
     7
 10
74.645198678
 20
193.7216399352
 30
0.0
  0
VERTEX
  5
4C4
  8
SK2
  6
CONTINUOUS
 62
     7
 10
74.8450313327
 20
193.5011744049
 30
0.0
  0
VERTEX
  5
4C5
  8
SK2
  6
CONTINUOUS
 62
     7
 10
75.0260254278
 20
193.2759403567
 30
0.0
  0
VERTEX
  5
4C6
  8
SK2
  6
CONTINUOUS
 62
     7
 10
75.1886240235
 20
193.0476876941
 30
0.0
  0
VERTEX
  5
4C7
  8
SK2
  6
CONTINUOUS
 62
     7
 10
75.3334372924
 20
192.8180102994
 30
0.0
  0
VERTEX
  5
4C8
  8
SK2
  6
CONTINUOUS
 62
     7
 10
75.4650552263
 20
192.5809432281
 30
0.0
  0
VERTEX
  5
4C9
  8
SK2
  6
CONTINUOUS
 62
     7
 10
75.5864799966
 20
192.3296323217
 30
0.0
  0
VERTEX
  5
4CA
  8
SK2
  6
CONTINUOUS
 62
     7
 10
75.6959876396
 20
192.0643642948
 30
0.0
  0
VERTEX
  5
4CB
  8
SK2
  6
CONTINUOUS
 62
     7
 10
75.7917992813
 20
191.7856447193
 30
0.0
  0
VERTEX
  5
4CC
  8
SK2
  6
CONTINUOUS
 62
     7
 10
75.8721128183
 20
191.4942198845
 30
0.0
  0
VERTEX
  5
4CD
  8
SK2
  6
CONTINUOUS
 62
     7
 10
75.9351410956
 20
191.1910942676
 30
0.0
  0
VERTEX
  5
4CE
  8
SK2
  6
CONTINUOUS
 62
     7
 10
75.979156032
 20
190.8775418431
 30
0.0
  0
VERTEX
  5
4CF
  8
SK2
  6
CONTINUOUS
 62
     7
 10
76.0025376154
 20
190.5551094699
 30
0.0
  0
VERTEX
  5
4D0
  8
SK2
  6
CONTINUOUS
 62
     7
 10
76.0038261266
 20
190.2256107548
 30
0.0
  0
VERTEX
  5
4D1
  8
SK2
  6
CONTINUOUS
 62
     7
 10
75.9817753974
 20
189.8911091393
 30
0.0
  0
VERTEX
  5
4D2
  8
SK2
  6
CONTINUOUS
 62
     7
 10
75.9354044367
 20
189.5538894867
 30
0.0
  0
VERTEX
  5
4D3
  8
SK2
  6
CONTINUOUS
 62
     7
 10
75.8640444409
 20
189.2164181523
 30
0.0
  0
VERTEX
  5
4D4
  8
SK2
  6
CONTINUOUS
 62
     7
 10
75.7673781077
 20
188.8812923469
 30
0.0
  0
VERTEX
  5
4D5
  8
SK2
  6
CONTINUOUS
 62
     7
 10
75.645468345
 20
188.5511804783
 30
0.0
  0
VERTEX
  5
4D6
  8
SK2
  6
CONTINUOUS
 62
     7
 10
75.4987739397
 20
188.2287559929
 30
0.0
  0
VERTEX
  5
4D7
  8
SK2
  6
CONTINUOUS
 62
     7
 10
75.3281504969
 20
187.9166279185
 30
0.0
  0
VERTEX
  5
4D8
  8
SK2
  6
CONTINUOUS
 62
     7
 10
75.1348359274
 20
187.6172717528
 30
0.0
  0
VERTEX
  5
4D9
  8
SK2
  6
CONTINUOUS
 62
     7
 10
74.9204208542
 20
187.3329644663
 30
0.0
  0
VERTEX
  5
4DA
  8
SK2
  6
CONTINUOUS
 62
     7
 10
74.6868053993
 20
187.0657271707
 30
0.0
  0
VERTEX
  5
4DB
  8
SK2
  6
CONTINUOUS
 62
     7
 10
74.4361447905
 20
186.8172784552
 30
0.0
  0
VERTEX
  5
4DC
  8
SK2
  6
CONTINUOUS
 62
     7
 10
74.1707869621
 20
186.5890005798
 30
0.0
  0
VERTEX
  5
4DD
  8
SK2
  6
CONTINUOUS
 62
     7
 10
73.8932057596
 20
186.3819197316
 30
0.0
  0
VERTEX
  5
4DE
  8
SK2
  6
CONTINUOUS
 62
     7
 10
73.6059334457
 20
186.1967005168
 30
0.0
  0
VERTEX
  5
4DF
  8
SK2
  6
CONTINUOUS
 62
     7
 10
73.3114959666
 20
186.0336538869
 30
0.0
  0
VERTEX
  5
4E0
  8
SK2
  6
CONTINUOUS
 62
     7
 10
73.0123539316
 20
185.8927568894
 30
0.0
  0
VERTEX
  5
4E1
  8
SK2
  6
CONTINUOUS
 62
     7
 10
72.7108515626
 20
185.7736820483
 30
0.0
  0
VERTEX
  5
4E2
  8
SK2
  6
CONTINUOUS
 62
     7
 10
72.4091750836
 20
185.6758338475
 30
0.0
  0
VERTEX
  5
4E3
  8
SK2
  6
CONTINUOUS
 62
     7
 10
72.1093212357
 20
185.598389711
 30
0.0
  0
VERTEX
  5
4E4
  8
SK2
  6
CONTINUOUS
 62
     7
 10
71.8130758903
 20
185.5403430054
 30
0.0
  0
VERTEX
  5
4E5
  8
SK2
  6
CONTINUOUS
 62
     7
 10
71.5220021537
 20
185.500545881
 30
0.0
  0
VERTEX
  5
4E6
  8
SK2
  6
CONTINUOUS
 62
     7
 10
71.2374369262
 20
185.4777501672
 30
0.0
  0
VERTEX
  5
4E7
  8
SK2
  6
CONTINUOUS
 62
     7
 10
70.9604946132
 20
185.470644977
 30
0.0
  0
SEQEND
  5
85D
  8
SK2
  6
CONTINUOUS
 62
     7
  0
CIRCLE
  5
19B
  8
SK2
  6
CONTINUOUS
 62
     7
 10
70.9657814088
 20
190.3720273579
 30
0.0
 40
2.592775394041936
  0
LINE
  5
19C
  8
SK2
  6
CONTINUOUS
 62
     7
 10
80.3697086051
 20
188.7418183147
 30
0.0
 11
76.8306784491
 21
188.7418183147
 31
0.0
  0
LINE
  5
19D
  8
SK2
  6
CONTINUOUS
 62
     7
 10
80.3697086051
 20
190.6481551185
 30
0.0
 11
80.3697086051
 21
188.7418183147
 31
0.0
  0
LINE
  5
19E
  8
SK2
  6
CONTINUOUS
 62
     7
 10
76.8306784491
 20
190.6481551185
 30
0.0
 11
80.3697086051
 21
190.6481551185
 31
0.0
  0
LINE
  5
19F
  8
SK2
  6
CONTINUOUS
 62
     7
 10
76.8306784491
 20
188.7418183147
 30
0.0
 11
76.8306784491
 21
190.6481551185
 31
0.0
  0
LINE
  5
1A0
  8
SK2
  6
CONTINUOUS
 62
     7
 10
83.7770394595
 20
189.3540948097
 30
0.0
 11
83.7770394595
 21
185.7546855318
 31
0.0
  0
LINE
  5
1A1
  8
SK2
  6
CONTINUOUS
 62
     7
 10
86.3867855275
 20
189.3540948097
 30
0.0
 11
83.7770394595
 21
189.3540948097
 31
0.0
  0
LINE
  5
1A2
  8
SK2
  6
CONTINUOUS
 62
     7
 10
86.3867855275
 20
191.398589555
 30
0.0
 11
86.3867855275
 21
189.3540948097
 31
0.0
  0
LINE
  5
1A3
  8
SK2
  6
CONTINUOUS
 62
     7
 10
86.3867855275
 20
191.398589555
 30
0.0
 11
83.7821627728
 21
191.398589555
 31
0.0
  0
LINE
  5
1A4
  8
SK2
  6
CONTINUOUS
 62
     7
 10
83.7821627728
 20
191.398589555
 30
0.0
 11
83.7821627728
 21
192.8889055286
 31
0.0
  0
LINE
  5
1A5
  8
SK2
  6
CONTINUOUS
 62
     7
 10
86.6347545427
 20
192.8889055286
 30
0.0
 11
83.7821627728
 21
192.8889055286
 31
0.0
  0
LINE
  5
1A6
  8
SK2
  6
CONTINUOUS
 62
     7
 10
86.6347545427
 20
194.9385447651
 30
0.0
 11
86.6347545427
 21
192.8889055286
 31
0.0
  0
LINE
  5
1A7
  8
SK2
  6
CONTINUOUS
 62
     7
 10
81.3837824571
 20
194.9385447651
 30
0.0
 11
86.6347545427
 21
194.9385447651
 31
0.0
  0
LINE
  5
1A8
  8
SK2
  6
CONTINUOUS
 62
     7
 10
81.3837824571
 20
194.9385447651
 30
0.0
 11
81.3837824571
 21
185.7546855318
 31
0.0
  0
LINE
  5
1A9
  8
SK2
  6
CONTINUOUS
 62
     7
 10
81.3837824571
 20
185.7546855318
 30
0.0
 11
83.7770394595
 21
185.7546855318
 31
0.0
  0
LINE
  5
1AA
  8
SK2
  6
CONTINUOUS
 62
     7
 10
89.9718599034
 20
194.9385447651
 30
0.0
 11
89.9718599034
 21
185.7546855318
 31
0.0
  0
LINE
  5
1AB
  8
SK2
  6
CONTINUOUS
 62
     7
 10
87.5892808382
 20
194.9385447651
 30
0.0
 11
89.9718599034
 21
194.9385447651
 31
0.0
  0
LINE
  5
1AC
  8
SK2
  6
CONTINUOUS
 62
     7
 10
87.5892808382
 20
194.9551488259
 30
0.0
 11
87.5892808382
 21
185.7546855318
 31
0.0
  0
LINE
  5
1AD
  8
SK2
  6
CONTINUOUS
 62
     7
 10
87.5892808382
 20
185.7546855318
 30
0.0
 11
89.9718599034
 21
185.7546855318
 31
0.0
  0
LINE
  5
1AE
  8
SK2
  6
CONTINUOUS
 62
     7
 10
93.8656517085
 20
190.6771667977
 30
0.0
 11
90.9399231233
 21
194.9385447651
 31
0.0
  0
LINE
  5
1AF
  8
SK2
  6
CONTINUOUS
 62
     7
 10
90.2354467706
 20
185.7546855318
 30
0.0
 11
93.8656517085
 21
190.6771667977
 31
0.0
  0
LINE
  5
1B0
  8
SK2
  6
CONTINUOUS
 62
     7
 10
90.2354467706
 20
185.7546855318
 30
0.0
 11
93.1808857212
 21
185.7546855318
 31
0.0
  0
LINE
  5
1B1
  8
SK2
  6
CONTINUOUS
 62
     7
 10
95.2668839774
 20
188.7463643586
 30
0.0
 11
93.1808857212
 21
185.7546855318
 31
0.0
  0
LINE
  5
1B2
  8
SK2
  6
CONTINUOUS
 62
     7
 10
97.1585700673
 20
185.7546855318
 30
0.0
 11
95.2668839774
 21
188.7463643586
 31
0.0
  0
LINE
  5
1B3
  8
SK2
  6
CONTINUOUS
 62
     7
 10
97.1585700673
 20
185.7546855318
 30
0.0
 11
100.0991694138
 21
185.7546855318
 31
0.0
  0
LINE
  5
1B4
  8
SK2
  6
CONTINUOUS
 62
     7
 10
96.6945344596
 20
190.6423625766
 30
0.0
 11
100.0991694138
 21
185.7546855318
 31
0.0
  0
LINE
  5
1B5
  8
SK2
  6
CONTINUOUS
 62
     7
 10
99.620301955
 20
194.9385447651
 30
0.0
 11
96.6945344596
 21
190.6423625766
 31
0.0
  0
LINE
  5
1B6
  8
SK2
  6
CONTINUOUS
 62
     7
 10
96.6588152907
 20
194.9385447651
 30
0.0
 11
99.620301955
 21
194.9385447651
 31
0.0
  0
LINE
  5
1B7
  8
SK2
  6
CONTINUOUS
 62
     7
 10
95.2589953943
 20
192.5894803754
 30
0.0
 11
96.6588152907
 21
194.9385447651
 31
0.0
  0
LINE
  5
1B8
  8
SK2
  6
CONTINUOUS
 62
     7
 10
93.8788566676
 20
194.9385447651
 30
0.0
 11
95.2589953943
 21
192.5894803754
 31
0.0
  0
LINE
  5
1B9
  8
SK2
  6
CONTINUOUS
 62
     7
 10
90.9399231233
 20
194.9385447651
 30
0.0
 11
93.8788566676
 21
194.9385447651
 31
0.0
  0
CIRCLE
  5
1BA
  8
SK2
  6
CONTINUOUS
 62
     7
 10
101.0869246934
 20
193.2418092973
 30
0.0
 40
1.751245468585817
  0
CIRCLE
  5
1BB
  8
SK2
  6
CONTINUOUS
 62
     7
 10
101.0869246934
 20
193.2418092973
 30
0.0
 40
1.36406508544596
  0
LINE
  5
1BC
  8
SK2
  6
CONTINUOUS
 62
     7
 10
100.780693683
 20
193.1428885624
 30
0.0
 11
100.780693683
 21
192.3666640537
 31
0.0
  0
LINE
  5
1BD
  8
SK2
  6
CONTINUOUS
 62
     7
 10
101.1022199045
 20
193.1428885624
 30
0.0
 11
100.780693683
 21
193.1428885624
 31
0.0
  0
LINE
  5
1BE
  8
SK2
  6
CONTINUOUS
 62
     7
 10
101.5047712885
 20
192.3666640537
 30
0.0
 11
101.1022199045
 21
193.1428885624
 31
0.0
  0
LINE
  5
1BF
  8
SK2
  6
CONTINUOUS
 62
     7
 10
101.5047712885
 20
192.3666640537
 30
0.0
 11
101.8764087918
 21
192.3666640537
 31
0.0
  0
LINE
  5
1C0
  8
SK2
  6
CONTINUOUS
 62
     7
 10
101.4738574078
 20
193.1428885624
 30
0.0
 11
101.8764087918
 21
192.3666640537
 31
0.0
  0
POLYLINE
  5
1C1
  8
SK2
  6
CONTINUOUS
 62
     7
 66
     1
 10
0.0
 20
0.0
 30
0.0
  0
VERTEX
  5
4E8
  8
SK2
  6
CONTINUOUS
 62
     7
 10
101.4738574078
 20
194.1353674977
 30
0.0
  0
VERTEX
  5
4E9
  8
SK2
  6
CONTINUOUS
 62
     7
 10
101.5055782704
 20
194.1354696097
 30
0.0
  0
VERTEX
  5
4EA
  8
SK2
  6
CONTINUOUS
 62
     7
 10
101.5368339923
 20
194.1320479736
 30
0.0
  0
VERTEX
  5
4EB
  8
SK2
  6
CONTINUOUS
 62
     7
 10
101.5674737187
 20
194.1253692204
 30
0.0
  0
VERTEX
  5
4EC
  8
SK2
  6
CONTINUOUS
 62
     7
 10
101.5973465947
 20
194.1156999811
 30
0.0
  0
VERTEX
  5
4ED
  8
SK2
  6
CONTINUOUS
 62
     7
 10
101.6263017657
 20
194.1033068868
 30
0.0
  0
VERTEX
  5
4EE
  8
SK2
  6
CONTINUOUS
 62
     7
 10
101.6541883767
 20
194.0884565686
 30
0.0
  0
VERTEX
  5
4EF
  8
SK2
  6
CONTINUOUS
 62
     7
 10
101.6808555729
 20
194.0714156576
 30
0.0
  0
VERTEX
  5
4F0
  8
SK2
  6
CONTINUOUS
 62
     7
 10
101.7061524997
 20
194.0524507847
 30
0.0
  0
VERTEX
  5
4F1
  8
SK2
  6
CONTINUOUS
 62
     7
 10
101.7299283021
 20
194.0318285811
 30
0.0
  0
VERTEX
  5
4F2
  8
SK2
  6
CONTINUOUS
 62
     7
 10
101.7520321254
 20
194.0098156778
 30
0.0
  0
VERTEX
  5
4F3
  8
SK2
  6
CONTINUOUS
 62
     7
 10
101.772336994
 20
193.9866591334
 30
0.0
  0
VERTEX
  5
4F4
  8
SK2
  6
CONTINUOUS
 62
     7
 10
101.7908466638
 20
193.9624988522
 30
0.0
  0
VERTEX
  5
4F5
  8
SK2
  6
CONTINUOUS
 62
     7
 10
101.8076094019
 20
193.9374382553
 30
0.0
  0
VERTEX
  5
4F6
  8
SK2
  6
CONTINUOUS
 62
     7
 10
101.8226735125
 20
193.9115807331
 30
0.0
  0
VERTEX
  5
4F7
  8
SK2
  6
CONTINUOUS
 62
     7
 10
101.8360872998
 20
193.8850296763
 30
0.0
  0
VERTEX
  5
4F8
  8
SK2
  6
CONTINUOUS
 62
     7
 10
101.8478990682
 20
193.8578884751
 30
0.0
  0
VERTEX
  5
4F9
  8
SK2
  6
CONTINUOUS
 62
     7
 10
101.8581571218
 20
193.8302605203
 30
0.0
  0
VERTEX
  5
4FA
  8
SK2
  6
CONTINUOUS
 62
     7
 10
101.8669097649
 20
193.8022492022
 30
0.0
  0
VERTEX
  5
4FB
  8
SK2
  6
CONTINUOUS
 62
     7
 10
101.8742053017
 20
193.7739579113
 30
0.0
  0
VERTEX
  5
4FC
  8
SK2
  6
CONTINUOUS
 62
     7
 10
101.8800920365
 20
193.7454900382
 30
0.0
  0
VERTEX
  5
4FD
  8
SK2
  6
CONTINUOUS
 62
     7
 10
101.8846182735
 20
193.7169489733
 30
0.0
  0
VERTEX
  5
4FE
  8
SK2
  6
CONTINUOUS
 62
     7
 10
101.887832317
 20
193.6884381072
 30
0.0
  0
VERTEX
  5
4FF
  8
SK2
  6
CONTINUOUS
 62
     7
 10
101.8897824712
 20
193.6600608303
 30
0.0
  0
VERTEX
  5
500
  8
SK2
  6
CONTINUOUS
 62
     7
 10
101.8905168374
 20
193.6319202544
 30
0.0
  0
VERTEX
  5
501
  8
SK2
  6
CONTINUOUS
 62
     7
 10
101.8900637906
 20
193.6040924079
 30
0.0
  0
VERTEX
  5
502
  8
SK2
  6
CONTINUOUS
 62
     7
 10
101.8884157527
 20
193.5766039566
 30
0.0
  0
VERTEX
  5
503
  8
SK2
  6
CONTINUOUS
 62
     7
 10
101.8855613258
 20
193.5494763218
 30
0.0
  0
VERTEX
  5
504
  8
SK2
  6
CONTINUOUS
 62
     7
 10
101.8814891121
 20
193.5227309252
 30
0.0
  0
VERTEX
  5
505
  8
SK2
  6
CONTINUOUS
 62
     7
 10
101.8761877137
 20
193.496389188
 30
0.0
  0
VERTEX
  5
506
  8
SK2
  6
CONTINUOUS
 62
     7
 10
101.8696457328
 20
193.4704725319
 30
0.0
  0
VERTEX
  5
507
  8
SK2
  6
CONTINUOUS
 62
     7
 10
101.8618517717
 20
193.4450023783
 30
0.0
  0
VERTEX
  5
508
  8
SK2
  6
CONTINUOUS
 62
     7
 10
101.8527944323
 20
193.4200001486
 30
0.0
  0
VERTEX
  5
509
  8
SK2
  6
CONTINUOUS
 62
     7
 10
101.842462317
 20
193.3954872643
 30
0.0
  0
VERTEX
  5
50A
  8
SK2
  6
CONTINUOUS
 62
     7
 10
101.8308440278
 20
193.371485147
 30
0.0
  0
VERTEX
  5
50B
  8
SK2
  6
CONTINUOUS
 62
     7
 10
101.817928167
 20
193.348015218
 30
0.0
  0
VERTEX
  5
50C
  8
SK2
  6
CONTINUOUS
 62
     7
 10
101.8037033367
 20
193.3250988988
 30
0.0
  0
VERTEX
  5
50D
  8
SK2
  6
CONTINUOUS
 62
     7
 10
101.7881581263
 20
193.3027576211
 30
0.0
  0
VERTEX
  5
50E
  8
SK2
  6
CONTINUOUS
 62
     7
 10
101.7712335453
 20
193.2810504187
 30
0.0
  0
VERTEX
  5
50F
  8
SK2
  6
CONTINUOUS
 62
     7
 10
101.7527156451
 20
193.260158789
 30
0.0
  0
VERTEX
  5
510
  8
SK2
  6
CONTINUOUS
 62
     7
 10
101.7323589849
 20
193.2402891178
 30
0.0
  0
VERTEX
  5
511
  8
SK2
  6
CONTINUOUS
 62
     7
 10
101.7099181234
 20
193.221647791
 30
0.0
  0
VERTEX
  5
512
  8
SK2
  6
CONTINUOUS
 62
     7
 10
101.6851476196
 20
193.2044411945
 30
0.0
  0
VERTEX
  5
513
  8
SK2
  6
CONTINUOUS
 62
     7
 10
101.6578020324
 20
193.1888757143
 30
0.0
  0
VERTEX
  5
514
  8
SK2
  6
CONTINUOUS
 62
     7
 10
101.6276359208
 20
193.1751577361
 30
0.0
  0
VERTEX
  5
515
  8
SK2
  6
CONTINUOUS
 62
     7
 10
101.5944038436
 20
193.1634936459
 30
0.0
  0
VERTEX
  5
516
  8
SK2
  6
CONTINUOUS
 62
     7
 10
101.5578603598
 20
193.1540898297
 30
0.0
  0
VERTEX
  5
517
  8
SK2
  6
CONTINUOUS
 62
     7
 10
101.5177600282
 20
193.1471526732
 30
0.0
  0
VERTEX
  5
518
  8
SK2
  6
CONTINUOUS
 62
     7
 10
101.4738574078
 20
193.1428885624
 30
0.0
  0
SEQEND
  5
85C
  8
SK2
  6
CONTINUOUS
 62
     7
  0
LINE
  5
1C2
  8
SK2
  6
CONTINUOUS
 62
     7
 10
100.4255103887
 20
194.1353674977
 30
0.0
 11
101.4738574078
 21
194.1353674977
 31
0.0
  0
LINE
  5
1C3
  8
SK2
  6
CONTINUOUS
 62
     7
 10
100.4255103887
 20
192.3666640537
 30
0.0
 11
100.4255103887
 21
194.1353674977
 31
0.0
  0
LINE
  5
1C4
  8
SK2
  6
CONTINUOUS
 62
     7
 10
100.4255103887
 20
192.3666640537
 30
0.0
 11
100.780693683
 21
192.3666640537
 31
0.0
  0
LINE
  5
1C5
  8
SK2
  6
CONTINUOUS
 62
     7
 10
100.7767023937
 20
193.4808824588
 30
0.0
 11
100.7767023937
 21
193.8536779351
 31
0.0
  0
LINE
  5
1C6
  8
SK2
  6
CONTINUOUS
 62
     7
 10
100.7767023937
 20
193.8536779351
 30
0.0
 11
101.3189503594
 21
193.8536779351
 31
0.0
  0
POLYLINE
  5
1C7
  8
SK2
  6
CONTINUOUS
 62
     7
 66
     1
 10
0.0
 20
0.0
 30
0.0
  0
VERTEX
  5
519
  8
SK2
  6
CONTINUOUS
 62
     7
 10
101.3189503594
 20
193.8536779351
 30
0.0
  0
VERTEX
  5
51A
  8
SK2
  6
CONTINUOUS
 62
     7
 10
101.3391754222
 20
193.8533713258
 30
0.0
  0
VERTEX
  5
51B
  8
SK2
  6
CONTINUOUS
 62
     7
 10
101.3569390378
 20
193.8524789069
 30
0.0
  0
VERTEX
  5
51C
  8
SK2
  6
CONTINUOUS
 62
     7
 10
101.3725705467
 20
193.8510237495
 30
0.0
  0
VERTEX
  5
51D
  8
SK2
  6
CONTINUOUS
 62
     7
 10
101.3863992894
 20
193.8490289243
 30
0.0
  0
VERTEX
  5
51E
  8
SK2
  6
CONTINUOUS
 62
     7
 10
101.3987546065
 20
193.8465175024
 30
0.0
  0
VERTEX
  5
51F
  8
SK2
  6
CONTINUOUS
 62
     7
 10
101.4099658384
 20
193.8435125547
 30
0.0
  0
VERTEX
  5
520
  8
SK2
  6
CONTINUOUS
 62
     7
 10
101.4203623258
 20
193.8400371521
 30
0.0
  0
VERTEX
  5
521
  8
SK2
  6
CONTINUOUS
 62
     7
 10
101.4302733146
 20
193.8361143577
 30
0.0
  0
VERTEX
  5
522
  8
SK2
  6
CONTINUOUS
 62
     7
 10
101.4399453506
 20
193.8317605109
 30
0.0
  0
VERTEX
  5
523
  8
SK2
  6
CONTINUOUS
 62
     7
 10
101.4493908527
 20
193.8269729149
 30
0.0
  0
VERTEX
  5
524
  8
SK2
  6
CONTINUOUS
 62
     7
 10
101.458581096
 20
193.8217455278
 30
0.0
  0
VERTEX
  5
525
  8
SK2
  6
CONTINUOUS
 62
     7
 10
101.4674873555
 20
193.8160723076
 30
0.0
  0
VERTEX
  5
526
  8
SK2
  6
CONTINUOUS
 62
     7
 10
101.4760809063
 20
193.8099472123
 30
0.0
  0
VERTEX
  5
527
  8
SK2
  6
CONTINUOUS
 62
     7
 10
101.4843330236
 20
193.8033642001
 30
0.0
  0
VERTEX
  5
528
  8
SK2
  6
CONTINUOUS
 62
     7
 10
101.4922149824
 20
193.796317229
 30
0.0
  0
VERTEX
  5
529
  8
SK2
  6
CONTINUOUS
 62
     7
 10
101.4996980578
 20
193.788800257
 30
0.0
  0
VERTEX
  5
52A
  8
SK2
  6
CONTINUOUS
 62
     7
 10
101.5067535249
 20
193.7808072423
 30
0.0
  0
VERTEX
  5
52B
  8
SK2
  6
CONTINUOUS
 62
     7
 10
101.5133526588
 20
193.7723321428
 30
0.0
  0
VERTEX
  5
52C
  8
SK2
  6
CONTINUOUS
 62
     7
 10
101.5194667346
 20
193.7633689166
 30
0.0
  0
VERTEX
  5
52D
  8
SK2
  6
CONTINUOUS
 62
     7
 10
101.5250670274
 20
193.7539115217
 30
0.0
  0
VERTEX
  5
52E
  8
SK2
  6
CONTINUOUS
 62
     7
 10
101.5301248122
 20
193.7439539163
 30
0.0
  0
VERTEX
  5
52F
  8
SK2
  6
CONTINUOUS
 62
     7
 10
101.5346113642
 20
193.7334900584
 30
0.0
  0
VERTEX
  5
530
  8
SK2
  6
CONTINUOUS
 62
     7
 10
101.5384979584
 20
193.722513906
 30
0.0
  0
VERTEX
  5
531
  8
SK2
  6
CONTINUOUS
 62
     7
 10
101.5417559187
 20
193.7110197247
 30
0.0
  0
VERTEX
  5
532
  8
SK2
  6
CONTINUOUS
 62
     7
 10
101.5443613666
 20
193.699032103
 30
0.0
  0
VERTEX
  5
533
  8
SK2
  6
CONTINUOUS
 62
     7
 10
101.5462992072
 20
193.6866311405
 30
0.0
  0
VERTEX
  5
534
  8
SK2
  6
CONTINUOUS
 62
     7
 10
101.5475552837
 20
193.6739028668
 30
0.0
  0
VERTEX
  5
535
  8
SK2
  6
CONTINUOUS
 62
     7
 10
101.5481154396
 20
193.6609333113
 30
0.0
  0
VERTEX
  5
536
  8
SK2
  6
CONTINUOUS
 62
     7
 10
101.5479655182
 20
193.6478085038
 30
0.0
  0
VERTEX
  5
537
  8
SK2
  6
CONTINUOUS
 62
     7
 10
101.5470913626
 20
193.6346144737
 30
0.0
  0
VERTEX
  5
538
  8
SK2
  6
CONTINUOUS
 62
     7
 10
101.5454788163
 20
193.6214372506
 30
0.0
  0
VERTEX
  5
539
  8
SK2
  6
CONTINUOUS
 62
     7
 10
101.5431137226
 20
193.6083628642
 30
0.0
  0
VERTEX
  5
53A
  8
SK2
  6
CONTINUOUS
 62
     7
 10
101.5399819248
 20
193.595477344
 30
0.0
  0
VERTEX
  5
53B
  8
SK2
  6
CONTINUOUS
 62
     7
 10
101.5360692661
 20
193.5828667195
 30
0.0
  0
VERTEX
  5
53C
  8
SK2
  6
CONTINUOUS
 62
     7
 10
101.53136159
 20
193.5706170203
 30
0.0
  0
VERTEX
  5
53D
  8
SK2
  6
CONTINUOUS
 62
     7
 10
101.5258447397
 20
193.558814276
 30
0.0
  0
VERTEX
  5
53E
  8
SK2
  6
CONTINUOUS
 62
     7
 10
101.5195045585
 20
193.5475445163
 30
0.0
  0
VERTEX
  5
53F
  8
SK2
  6
CONTINUOUS
 62
     7
 10
101.5123269022
 20
193.5368937599
 30
0.0
  0
VERTEX
  5
540
  8
SK2
  6
CONTINUOUS
 62
     7
 10
101.504301928
 20
193.5269443386
 30
0.0
  0
VERTEX
  5
541
  8
SK2
  6
CONTINUOUS
 62
     7
 10
101.4954303802
 20
193.517769509
 30
0.0
  0
VERTEX
  5
542
  8
SK2
  6
CONTINUOUS
 62
     7
 10
101.4857146023
 20
193.509441157
 30
0.0
  0
VERTEX
  5
543
  8
SK2
  6
CONTINUOUS
 62
     7
 10
101.4751569378
 20
193.5020311681
 30
0.0
  0
VERTEX
  5
544
  8
SK2
  6
CONTINUOUS
 62
     7
 10
101.4637597305
 20
193.495611428
 30
0.0
  0
VERTEX
  5
545
  8
SK2
  6
CONTINUOUS
 62
     7
 10
101.4515253239
 20
193.4902538225
 30
0.0
  0
VERTEX
  5
546
  8
SK2
  6
CONTINUOUS
 62
     7
 10
101.4384560617
 20
193.4860302371
 30
0.0
  0
VERTEX
  5
547
  8
SK2
  6
CONTINUOUS
 62
     7
 10
101.4245542873
 20
193.4830125576
 30
0.0
  0
VERTEX
  5
548
  8
SK2
  6
CONTINUOUS
 62
     7
 10
101.4098223445
 20
193.4812726695
 30
0.0
  0
VERTEX
  5
549
  8
SK2
  6
CONTINUOUS
 62
     7
 10
101.3942625768
 20
193.4808824588
 30
0.0
  0
SEQEND
  5
85B
  8
SK2
  6
CONTINUOUS
 62
     7
  0
LINE
  5
1C8
  8
SK2
  6
CONTINUOUS
 62
     7
 10
100.7767023937
 20
193.4808824588
 30
0.0
 11
101.3942625768
 21
193.4808824588
 31
0.0
  0
TEXT
  5
1C9
  8
SK2
  6
CONTINUOUS
 62
     7
 10
29.421892683
 20
191.6482410873
 30
0.0
 40
1.562478211
  1
Swiss
  0
TEXT
  5
1CA
  8
SK2
  6
CONTINUOUS
 62
     7
 10
29.3615006097
 20
189.5324537563
 30
0.0
 40
1.555658846
  1
Precision
  0
TEXT
  5
1CB
  8
SK2
  6
CONTINUOUS
 62
     7
 10
30.5334253534
 20
187.3619518951
 30
0.0
 40
1.555658846
  1
ools
  0
TEXT
  5
1CC
  8
SK2
  6
CONTINUOUS
 62
     7
 10
29.4781750232
 20
187.3619518951
 30
0.0
 40
1.555658846
  1
T
  0
LINE
  5
1CD
  8
SK2
  6
CONTINUOUS
 62
     7
 10
14.99878275
 20
185.8256208127
 30
0.0
 11
14.99878275
 21
194.9748906896
 31
0.0
  0
LINE
  5
1CE
  8
SK2
  6
CONTINUOUS
 62
     7
 10
27.1772645759
 20
185.8256208127
 30
0.0
 11
14.99878275
 21
185.8256208127
 31
0.0
  0
LINE
  5
1CF
  8
SK2
  6
CONTINUOUS
 62
     7
 10
27.1772645759
 20
194.9748906896
 30
0.0
 11
27.1772645759
 21
185.8256208127
 31
0.0
  0
LINE
  5
1D0
  8
SK2
  6
CONTINUOUS
 62
     7
 10
14.99878275
 20
194.9748906896
 30
0.0
 11
27.1772645759
 21
194.9748906896
 31
0.0
  0
LINE
  5
1D1
  8
SK2
  6
CONTINUOUS
 62
     7
 10
15.2027506548
 20
186.0257023597
 30
0.0
 11
15.2027506548
 21
194.7736155142
 31
0.0
  0
LINE
  5
1D2
  8
SK2
  6
CONTINUOUS
 62
     7
 10
15.2027506548
 20
194.7736155142
 30
0.0
 11
26.9684076836
 21
194.7736155142
 31
0.0
  0
LINE
  5
1D3
  8
SK2
  6
CONTINUOUS
 62
     7
 10
26.9684076836
 20
186.0257023597
 30
0.0
 11
26.9684076836
 21
194.7736155142
 31
0.0
  0
LINE
  5
1D4
  8
SK2
  6
CONTINUOUS
 62
     7
 10
26.9684076836
 20
186.0257023597
 30
0.0
 11
15.2027506548
 21
186.0257023597
 31
0.0
  0
LINE
  5
1D5
  8
SK2
  6
CONTINUOUS
 62
     7
 10
28.1737113848
 20
185.8256208127
 30
0.0
 11
28.1737113848
 21
194.9748906896
 31
0.0
  0
LINE
  5
1D6
  8
SK2
  6
CONTINUOUS
 62
     7
 10
40.3396364356
 20
185.8256208127
 30
0.0
 11
28.1737113848
 21
185.8256208127
 31
0.0
  0
LINE
  5
1D7
  8
SK2
  6
CONTINUOUS
 62
     7
 10
40.3396364356
 20
194.9748906896
 30
0.0
 11
40.3396364356
 21
185.8256208127
 31
0.0
  0
LINE
  5
1D8
  8
SK2
  6
CONTINUOUS
 62
     7
 10
28.1737113848
 20
194.9748906896
 30
0.0
 11
40.3396364356
 21
194.9748906896
 31
0.0
  0
LINE
  5
1D9
  8
SK2
  6
CONTINUOUS
 62
     7
 10
28.3742523953
 20
194.7736155142
 30
0.0
 11
28.3742523953
 21
186.0257023597
 31
0.0
  0
LINE
  5
1DA
  8
SK2
  6
CONTINUOUS
 62
     7
 10
28.3742523953
 20
194.7736155142
 30
0.0
 11
40.1352889741
 21
194.7736155142
 31
0.0
  0
LINE
  5
1DB
  8
SK2
  6
CONTINUOUS
 62
     7
 10
40.1352889741
 20
194.7736155142
 30
0.0
 11
40.1352889741
 21
186.0257023597
 31
0.0
  0
LINE
  5
1DC
  8
SK2
  6
CONTINUOUS
 62
     7
 10
40.1352889741
 20
186.0257023597
 30
0.0
 11
28.3742523953
 21
186.0257023597
 31
0.0
  0
LINE
  5
1DD
  8
SK2
  6
CONTINUOUS
 62
     7
 10
15.8199688727
 20
186.971670437
 30
0.0
 11
26.4161298297
 21
186.971670437
 31
0.0
  0
LINE
  5
1DE
  8
SK2
  6
CONTINUOUS
 62
     7
 10
26.4161298297
 20
186.971670437
 30
0.0
 11
21.1180493512
 21
193.8440734706
 31
0.0
  0
LINE
  5
1DF
  8
SK2
  6
CONTINUOUS
 62
     7
 10
21.1180493512
 20
193.8440734706
 30
0.0
 11
15.8199688727
 21
186.971670437
 31
0.0
  0
LINE
  5
1E0
  8
SK2
  6
CONTINUOUS
 62
     7
 10
20.4615630789
 20
188.3232248946
 30
0.0
 11
20.6473639144
 21
188.3232248946
 31
0.0
  0
LINE
  5
1E1
  8
SK2
  6
CONTINUOUS
 62
     7
 10
20.4615630789
 20
188.5801526124
 30
0.0
 11
20.4615630789
 21
188.3232248946
 31
0.0
  0
LINE
  5
1E2
  8
SK2
  6
CONTINUOUS
 62
     7
 10
20.6473639144
 20
188.5801526124
 30
0.0
 11
20.4615630789
 21
188.5801526124
 31
0.0
  0
POLYLINE
  5
1E3
  8
SK2
  6
CONTINUOUS
 62
     7
 66
     1
 10
0.0
 20
0.0
 30
0.0
  0
VERTEX
  5
54A
  8
SK2
  6
CONTINUOUS
 62
     7
 10
20.6473639144
 20
188.5801526124
 30
0.0
  0
VERTEX
  5
54B
  8
SK2
  6
CONTINUOUS
 62
     7
 10
20.6476008995
 20
188.5997526142
 30
0.0
  0
VERTEX
  5
54C
  8
SK2
  6
CONTINUOUS
 62
     7
 10
20.6477383221
 20
188.6184084371
 30
0.0
  0
VERTEX
  5
54D
  8
SK2
  6
CONTINUOUS
 62
     7
 10
20.6478037331
 20
188.6361896269
 30
0.0
  0
VERTEX
  5
54E
  8
SK2
  6
CONTINUOUS
 62
     7
 10
20.647824683
 20
188.6531657291
 30
0.0
  0
VERTEX
  5
54F
  8
SK2
  6
CONTINUOUS
 62
     7
 10
20.6478287224
 20
188.6694062894
 30
0.0
  0
VERTEX
  5
550
  8
SK2
  6
CONTINUOUS
 62
     7
 10
20.647843402
 20
188.6849808533
 30
0.0
  0
VERTEX
  5
551
  8
SK2
  6
CONTINUOUS
 62
     7
 10
20.6478962725
 20
188.6999589666
 30
0.0
  0
VERTEX
  5
552
  8
SK2
  6
CONTINUOUS
 62
     7
 10
20.6480148846
 20
188.7144101747
 30
0.0
  0
VERTEX
  5
553
  8
SK2
  6
CONTINUOUS
 62
     7
 10
20.6482267888
 20
188.7284040235
 30
0.0
  0
VERTEX
  5
554
  8
SK2
  6
CONTINUOUS
 62
     7
 10
20.6485595358
 20
188.7420100584
 30
0.0
  0
VERTEX
  5
555
  8
SK2
  6
CONTINUOUS
 62
     7
 10
20.6490406763
 20
188.7552978252
 30
0.0
  0
VERTEX
  5
556
  8
SK2
  6
CONTINUOUS
 62
     7
 10
20.6496977609
 20
188.7683368694
 30
0.0
  0
VERTEX
  5
557
  8
SK2
  6
CONTINUOUS
 62
     7
 10
20.6505583403
 20
188.7811967366
 30
0.0
  0
VERTEX
  5
558
  8
SK2
  6
CONTINUOUS
 62
     7
 10
20.6516499651
 20
188.7939469725
 30
0.0
  0
VERTEX
  5
559
  8
SK2
  6
CONTINUOUS
 62
     7
 10
20.653000186
 20
188.8066571228
 30
0.0
  0
VERTEX
  5
55A
  8
SK2
  6
CONTINUOUS
 62
     7
 10
20.6546365536
 20
188.819396733
 30
0.0
  0
VERTEX
  5
55B
  8
SK2
  6
CONTINUOUS
 62
     7
 10
20.6565872219
 20
188.8322336101
 30
0.0
  0
VERTEX
  5
55C
  8
SK2
  6
CONTINUOUS
 62
     7
 10
20.6589022195
 20
188.8451725267
 30
0.0
  0
VERTEX
  5
55D
  8
SK2
  6
CONTINUOUS
 62
     7
 10
20.6616591083
 20
188.8581389134
 30
0.0
  0
VERTEX
  5
55E
  8
SK2
  6
CONTINUOUS
 62
     7
 10
20.6649372043
 20
188.8710531466
 30
0.0
  0
VERTEX
  5
55F
  8
SK2
  6
CONTINUOUS
 62
     7
 10
20.6688158236
 20
188.8838356028
 30
0.0
  0
VERTEX
  5
560
  8
SK2
  6
CONTINUOUS
 62
     7
 10
20.673374282
 20
188.8964066582
 30
0.0
  0
VERTEX
  5
561
  8
SK2
  6
CONTINUOUS
 62
     7
 10
20.6786916453
 20
188.9086867426
 30
0.0
  0
VERTEX
  5
562
  8
SK2
  6
CONTINUOUS
 62
     7
 10
20.6847961715
 20
188.9206071024
 30
0.0
  0
VERTEX
  5
563
  8
SK2
  6
CONTINUOUS
 62
     7
 10
20.6916038498
 20
188.9321228856
 30
0.0
  0
VERTEX
  5
564
  8
SK2
  6
CONTINUOUS
 62
     7
 10
20.6990156459
 20
188.9431924389
 30
0.0
  0
VERTEX
  5
565
  8
SK2
  6
CONTINUOUS
 62
     7
 10
20.7069325258
 20
188.9537741086
 30
0.0
  0
VERTEX
  5
566
  8
SK2
  6
CONTINUOUS
 62
     7
 10
20.7152554551
 20
188.9638262412
 30
0.0
  0
VERTEX
  5
567
  8
SK2
  6
CONTINUOUS
 62
     7
 10
20.7238860714
 20
188.9733074366
 30
0.0
  0
VERTEX
  5
568
  8
SK2
  6
CONTINUOUS
 62
     7
 10
20.7327661231
 20
188.9821914179
 30
0.0
  0
VERTEX
  5
569
  8
SK2
  6
CONTINUOUS
 62
     7
 10
20.7418994286
 20
188.9904753114
 30
0.0
  0
VERTEX
  5
56A
  8
SK2
  6
CONTINUOUS
 62
     7
 10
20.7512951336
 20
188.9981582519
 30
0.0
  0
VERTEX
  5
56B
  8
SK2
  6
CONTINUOUS
 62
     7
 10
20.7609623839
 20
189.0052393742
 30
0.0
  0
VERTEX
  5
56C
  8
SK2
  6
CONTINUOUS
 62
     7
 10
20.7709103251
 20
189.0117178131
 30
0.0
  0
VERTEX
  5
56D
  8
SK2
  6
CONTINUOUS
 62
     7
 10
20.781148103
 20
189.0175927035
 30
0.0
  0
VERTEX
  5
56E
  8
SK2
  6
CONTINUOUS
 62
     7
 10
20.7916848633
 20
189.0228631801
 30
0.0
  0
VERTEX
  5
56F
  8
SK2
  6
CONTINUOUS
 62
     7
 10
20.8025297516
 20
189.0275283778
 30
0.0
  0
VERTEX
  5
570
  8
SK2
  6
CONTINUOUS
 62
     7
 10
20.8136912894
 20
189.0315894083
 30
0.0
  0
VERTEX
  5
571
  8
SK2
  6
CONTINUOUS
 62
     7
 10
20.8251697398
 20
189.0350735331
 30
0.0
  0
VERTEX
  5
572
  8
SK2
  6
CONTINUOUS
 62
     7
 10
20.836959521
 20
189.0380265227
 30
0.0
  0
VERTEX
  5
573
  8
SK2
  6
CONTINUOUS
 62
     7
 10
20.8490549272
 20
189.0404945387
 30
0.0
  0
VERTEX
  5
574
  8
SK2
  6
CONTINUOUS
 62
     7
 10
20.861450253
 20
189.0425237428
 30
0.0
  0
VERTEX
  5
575
  8
SK2
  6
CONTINUOUS
 62
     7
 10
20.8741397928
 20
189.0441602966
 30
0.0
  0
VERTEX
  5
576
  8
SK2
  6
CONTINUOUS
 62
     7
 10
20.887117841
 20
189.0454503618
 30
0.0
  0
VERTEX
  5
577
  8
SK2
  6
CONTINUOUS
 62
     7
 10
20.9003786922
 20
189.0464401
 30
0.0
  0
VERTEX
  5
578
  8
SK2
  6
CONTINUOUS
 62
     7
 10
20.9139166407
 20
189.0471756728
 30
0.0
  0
VERTEX
  5
579
  8
SK2
  6
CONTINUOUS
 62
     7
 10
20.927725981
 20
189.0477032421
 30
0.0
  0
VERTEX
  5
57A
  8
SK2
  6
CONTINUOUS
 62
     7
 10
20.9418010075
 20
189.0480689692
 30
0.0
  0
VERTEX
  5
57B
  8
SK2
  6
CONTINUOUS
 62
     7
 10
20.9561360148
 20
189.0483190161
 30
0.0
  0
VERTEX
  5
57C
  8
SK2
  6
CONTINUOUS
 62
     7
 10
20.9707256978
 20
189.048498496
 30
0.0
  0
VERTEX
  5
57D
  8
SK2
  6
CONTINUOUS
 62
     7
 10
20.9855726132
 20
189.0486319481
 30
0.0
  0
VERTEX
  5
57E
  8
SK2
  6
CONTINUOUS
 62
     7
 10
21.000686495
 20
189.0487251286
 30
0.0
  0
VERTEX
  5
57F
  8
SK2
  6
CONTINUOUS
 62
     7
 10
21.0160773405
 20
189.0487831042
 30
0.0
  0
VERTEX
  5
580
  8
SK2
  6
CONTINUOUS
 62
     7
 10
21.0317551472
 20
189.0488109421
 30
0.0
  0
VERTEX
  5
581
  8
SK2
  6
CONTINUOUS
 62
     7
 10
21.0477299124
 20
189.0488137091
 30
0.0
  0
VERTEX
  5
582
  8
SK2
  6
CONTINUOUS
 62
     7
 10
21.0640116333
 20
189.0487964721
 30
0.0
  0
VERTEX
  5
583
  8
SK2
  6
CONTINUOUS
 62
     7
 10
21.0806103074
 20
189.0487642981
 30
0.0
  0
VERTEX
  5
584
  8
SK2
  6
CONTINUOUS
 62
     7
 10
21.097535932
 20
189.0487222541
 30
0.0
  0
VERTEX
  5
585
  8
SK2
  6
CONTINUOUS
 62
     7
 10
21.1147985044
 20
189.048675407
 30
0.0
  0
VERTEX
  5
586
  8
SK2
  6
CONTINUOUS
 62
     7
 10
21.132408022
 20
189.0486288237
 30
0.0
  0
VERTEX
  5
587
  8
SK2
  6
CONTINUOUS
 62
     7
 10
21.1503744821
 20
189.0485875711
 30
0.0
  0
VERTEX
  5
588
  8
SK2
  6
CONTINUOUS
 62
     7
 10
21.168707882
 20
189.0485567163
 30
0.0
  0
VERTEX
  5
589
  8
SK2
  6
CONTINUOUS
 62
     7
 10
21.1874182192
 20
189.0485413261
 30
0.0
  0
VERTEX
  5
58A
  8
SK2
  6
CONTINUOUS
 62
     7
 10
21.2065154908
 20
189.0485464676
 30
0.0
  0
SEQEND
  5
85A
  8
SK2
  6
CONTINUOUS
 62
     7
  0
LINE
  5
1E4
  8
SK2
  6
CONTINUOUS
 62
     7
 10
21.2065154908
 20
189.0485464676
 30
0.0
 11
21.2065154908
 21
188.7854244211
 31
0.0
  0
POLYLINE
  5
1E5
  8
SK2
  6
CONTINUOUS
 62
     7
 66
     1
 10
0.0
 20
0.0
 30
0.0
  0
VERTEX
  5
58B
  8
SK2
  6
CONTINUOUS
 62
     7
 10
21.0078641699
 20
188.5774880992
 30
0.0
  0
VERTEX
  5
58C
  8
SK2
  6
CONTINUOUS
 62
     7
 10
21.0078348267
 20
188.5973768645
 30
0.0
  0
VERTEX
  5
58D
  8
SK2
  6
CONTINUOUS
 62
     7
 10
21.007837229
 20
188.614174444
 30
0.0
  0
VERTEX
  5
58E
  8
SK2
  6
CONTINUOUS
 62
     7
 10
21.0078708438
 20
188.6282188945
 30
0.0
  0
VERTEX
  5
58F
  8
SK2
  6
CONTINUOUS
 62
     7
 10
21.0079351385
 20
188.6398482729
 30
0.0
  0
VERTEX
  5
590
  8
SK2
  6
CONTINUOUS
 62
     7
 10
21.0080295803
 20
188.649400636
 30
0.0
  0
VERTEX
  5
591
  8
SK2
  6
CONTINUOUS
 62
     7
 10
21.0081536363
 20
188.6572140406
 30
0.0
  0
VERTEX
  5
592
  8
SK2
  6
CONTINUOUS
 62
     7
 10
21.0083067738
 20
188.6636265435
 30
0.0
  0
VERTEX
  5
593
  8
SK2
  6
CONTINUOUS
 62
     7
 10
21.0084884601
 20
188.6689762015
 30
0.0
  0
VERTEX
  5
594
  8
SK2
  6
CONTINUOUS
 62
     7
 10
21.0086981623
 20
188.6736010716
 30
0.0
  0
VERTEX
  5
595
  8
SK2
  6
CONTINUOUS
 62
     7
 10
21.0089353477
 20
188.6778392104
 30
0.0
  0
VERTEX
  5
596
  8
SK2
  6
CONTINUOUS
 62
     7
 10
21.0091994834
 20
188.6820286749
 30
0.0
  0
VERTEX
  5
597
  8
SK2
  6
CONTINUOUS
 62
     7
 10
21.0094969002
 20
188.6864448197
 30
0.0
  0
VERTEX
  5
598
  8
SK2
  6
CONTINUOUS
 62
     7
 10
21.009861111
 20
188.6911146714
 30
0.0
  0
VERTEX
  5
599
  8
SK2
  6
CONTINUOUS
 62
     7
 10
21.010332357
 20
188.6960037886
 30
0.0
  0
VERTEX
  5
59A
  8
SK2
  6
CONTINUOUS
 62
     7
 10
21.0109508797
 20
188.70107773
 30
0.0
  0
VERTEX
  5
59B
  8
SK2
  6
CONTINUOUS
 62
     7
 10
21.0117569203
 20
188.7063020542
 30
0.0
  0
VERTEX
  5
59C
  8
SK2
  6
CONTINUOUS
 62
     7
 10
21.0127907201
 20
188.7116423197
 30
0.0
  0
VERTEX
  5
59D
  8
SK2
  6
CONTINUOUS
 62
     7
 10
21.0140925204
 20
188.7170640851
 30
0.0
  0
VERTEX
  5
59E
  8
SK2
  6
CONTINUOUS
 62
     7
 10
21.0157025625
 20
188.7225329092
 30
0.0
  0
VERTEX
  5
59F
  8
SK2
  6
CONTINUOUS
 62
     7
 10
21.0176610878
 20
188.7280143504
 30
0.0
  0
VERTEX
  5
5A0
  8
SK2
  6
CONTINUOUS
 62
     7
 10
21.0200067135
 20
188.7334730464
 30
0.0
  0
VERTEX
  5
5A1
  8
SK2
  6
CONTINUOUS
 62
     7
 10
21.0227419058
 20
188.7388531334
 30
0.0
  0
VERTEX
  5
5A2
  8
SK2
  6
CONTINUOUS
 62
     7
 10
21.0258336346
 20
188.7440786173
 30
0.0
  0
VERTEX
  5
5A3
  8
SK2
  6
CONTINUOUS
 62
     7
 10
21.0292473767
 20
188.7490726574
 30
0.0
  0
VERTEX
  5
5A4
  8
SK2
  6
CONTINUOUS
 62
     7
 10
21.032948609
 20
188.753758413
 30
0.0
  0
VERTEX
  5
5A5
  8
SK2
  6
CONTINUOUS
 62
     7
 10
21.0369028084
 20
188.7580590434
 30
0.0
  0
VERTEX
  5
5A6
  8
SK2
  6
CONTINUOUS
 62
     7
 10
21.0410754357
 20
188.7618991751
 30
0.0
  0
VERTEX
  5
5A7
  8
SK2
  6
CONTINUOUS
 62
     7
 10
21.045431373
 20
188.7652561753
 30
0.0
  0
VERTEX
  5
5A8
  8
SK2
  6
CONTINUOUS
 62
     7
 10
21.0499347773
 20
188.7681735375
 30
0.0
  0
VERTEX
  5
5A9
  8
SK2
  6
CONTINUOUS
 62
     7
 10
21.0545497596
 20
188.7706989424
 30
0.0
  0
VERTEX
  5
5AA
  8
SK2
  6
CONTINUOUS
 62
     7
 10
21.0592404309
 20
188.7728800705
 30
0.0
  0
VERTEX
  5
5AB
  8
SK2
  6
CONTINUOUS
 62
     7
 10
21.0639709022
 20
188.7747646026
 30
0.0
  0
VERTEX
  5
5AC
  8
SK2
  6
CONTINUOUS
 62
     7
 10
21.0687052844
 20
188.7764002191
 30
0.0
  0
VERTEX
  5
5AD
  8
SK2
  6
CONTINUOUS
 62
     7
 10
21.0734076886
 20
188.7778346009
 30
0.0
  0
VERTEX
  5
5AE
  8
SK2
  6
CONTINUOUS
 62
     7
 10
21.0780511008
 20
188.7791098357
 30
0.0
  0
VERTEX
  5
5AF
  8
SK2
  6
CONTINUOUS
 62
     7
 10
21.0826501037
 20
188.7802417991
 30
0.0
  0
VERTEX
  5
5B0
  8
SK2
  6
CONTINUOUS
 62
     7
 10
21.0872314568
 20
188.7812386934
 30
0.0
  0
VERTEX
  5
5B1
  8
SK2
  6
CONTINUOUS
 62
     7
 10
21.0918219207
 20
188.78210872
 30
0.0
  0
VERTEX
  5
5B2
  8
SK2
  6
CONTINUOUS
 62
     7
 10
21.0964482561
 20
188.7828600804
 30
0.0
  0
VERTEX
  5
5B3
  8
SK2
  6
CONTINUOUS
 62
     7
 10
21.1011372239
 20
188.7835009758
 30
0.0
  0
VERTEX
  5
5B4
  8
SK2
  6
CONTINUOUS
 62
     7
 10
21.1059155848
 20
188.7840396077
 30
0.0
  0
VERTEX
  5
5B5
  8
SK2
  6
CONTINUOUS
 62
     7
 10
21.1108100996
 20
188.7844841776
 30
0.0
  0
VERTEX
  5
5B6
  8
SK2
  6
CONTINUOUS
 62
     7
 10
21.115847529
 20
188.7848428868
 30
0.0
  0
VERTEX
  5
5B7
  8
SK2
  6
CONTINUOUS
 62
     7
 10
21.1210546338
 20
188.7851239367
 30
0.0
  0
VERTEX
  5
5B8
  8
SK2
  6
CONTINUOUS
 62
     7
 10
21.1264581748
 20
188.7853355287
 30
0.0
  0
VERTEX
  5
5B9
  8
SK2
  6
CONTINUOUS
 62
     7
 10
21.1320849127
 20
188.7854858642
 30
0.0
  0
VERTEX
  5
5BA
  8
SK2
  6
CONTINUOUS
 62
     7
 10
21.1379616084
 20
188.7855831446
 30
0.0
  0
VERTEX
  5
5BB
  8
SK2
  6
CONTINUOUS
 62
     7
 10
21.1441150224
 20
188.7856355714
 30
0.0
  0
VERTEX
  5
5BC
  8
SK2
  6
CONTINUOUS
 62
     7
 10
21.1505719157
 20
188.7856513459
 30
0.0
  0
VERTEX
  5
5BD
  8
SK2
  6
CONTINUOUS
 62
     7
 10
21.1573590489
 20
188.7856386695
 30
0.0
  0
VERTEX
  5
5BE
  8
SK2
  6
CONTINUOUS
 62
     7
 10
21.1645031829
 20
188.7856057436
 30
0.0
  0
VERTEX
  5
5BF
  8
SK2
  6
CONTINUOUS
 62
     7
 10
21.1720310785
 20
188.7855607697
 30
0.0
  0
VERTEX
  5
5C0
  8
SK2
  6
CONTINUOUS
 62
     7
 10
21.1799694962
 20
188.785511949
 30
0.0
  0
VERTEX
  5
5C1
  8
SK2
  6
CONTINUOUS
 62
     7
 10
21.188345197
 20
188.7854674831
 30
0.0
  0
VERTEX
  5
5C2
  8
SK2
  6
CONTINUOUS
 62
     7
 10
21.1971849417
 20
188.7854355734
 30
0.0
  0
VERTEX
  5
5C3
  8
SK2
  6
CONTINUOUS
 62
     7
 10
21.2065154908
 20
188.7854244211
 30
0.0
  0
SEQEND
  5
859
  8
SK2
  6
CONTINUOUS
 62
     7
  0
LINE
  5
1E6
  8
SK2
  6
CONTINUOUS
 62
     7
 10
21.2237864353
 20
188.5774880992
 30
0.0
 11
21.0078641699
 21
188.5774880992
 31
0.0
  0
LINE
  5
1E7
  8
SK2
  6
CONTINUOUS
 62
     7
 10
21.2237864353
 20
188.3232248946
 30
0.0
 11
21.2237864353
 21
188.5774880992
 31
0.0
  0
LINE
  5
1E8
  8
SK2
  6
CONTINUOUS
 62
     7
 10
21.0078641699
 20
188.3232248946
 30
0.0
 11
21.2237864353
 21
188.3232248946
 31
0.0
  0
LINE
  5
1E9
  8
SK2
  6
CONTINUOUS
 62
     7
 10
21.0078641699
 20
187.2800436062
 30
0.0
 11
21.0078641699
 21
188.3232248946
 31
0.0
  0
LINE
  5
1EA
  8
SK2
  6
CONTINUOUS
 62
     7
 10
20.6473639144
 20
187.2800436062
 30
0.0
 11
21.0078641699
 21
187.2800436062
 31
0.0
  0
LINE
  5
1EB
  8
SK2
  6
CONTINUOUS
 62
     7
 10
20.6473639144
 20
188.3232248946
 30
0.0
 11
20.6473639144
 21
187.2800436062
 31
0.0
  0
LINE
  5
1EC
  8
SK2
  6
CONTINUOUS
 62
     7
 10
19.1536478393
 20
189.9564957932
 30
0.0
 11
19.1536478393
 21
189.3024706242
 31
0.0
  0
LINE
  5
1ED
  8
SK2
  6
CONTINUOUS
 62
     7
 10
19.1536478393
 20
189.3024706242
 30
0.0
 11
18.7893908455
 21
189.3024706242
 31
0.0
  0
LINE
  5
1EE
  8
SK2
  6
CONTINUOUS
 62
     7
 10
18.7893908455
 20
189.3024706242
 30
0.0
 11
18.7893908455
 21
190.6105209622
 31
0.0
  0
LINE
  5
1EF
  8
SK2
  6
CONTINUOUS
 62
     7
 10
18.7893908455
 20
190.6105209622
 30
0.0
 11
19.12508518
 21
190.6105209622
 31
0.0
  0
LINE
  5
1F0
  8
SK2
  6
CONTINUOUS
 62
     7
 10
19.12508518
 20
190.6105209622
 30
0.0
 11
19.12508518
 21
190.407139739
 31
0.0
  0
POLYLINE
  5
1F1
  8
SK2
  6
CONTINUOUS
 62
     7
 66
     1
 10
0.0
 20
0.0
 30
0.0
  0
VERTEX
  5
5C4
  8
SK2
  6
CONTINUOUS
 62
     7
 10
19.12508518
 20
190.407139739
 30
0.0
  0
VERTEX
  5
5C5
  8
SK2
  6
CONTINUOUS
 62
     7
 10
19.1319627472
 20
190.4193727459
 30
0.0
  0
VERTEX
  5
5C6
  8
SK2
  6
CONTINUOUS
 62
     7
 10
19.13877518
 20
190.4312886261
 30
0.0
  0
VERTEX
  5
5C7
  8
SK2
  6
CONTINUOUS
 62
     7
 10
19.14556757
 20
190.4428949637
 30
0.0
  0
VERTEX
  5
5C8
  8
SK2
  6
CONTINUOUS
 62
     7
 10
19.152385009
 20
190.4541993428
 30
0.0
  0
VERTEX
  5
5C9
  8
SK2
  6
CONTINUOUS
 62
     7
 10
19.1592725886
 20
190.4652093474
 30
0.0
  0
VERTEX
  5
5CA
  8
SK2
  6
CONTINUOUS
 62
     7
 10
19.1662754006
 20
190.4759325616
 30
0.0
  0
VERTEX
  5
5CB
  8
SK2
  6
CONTINUOUS
 62
     7
 10
19.1734385367
 20
190.4863765693
 30
0.0
  0
VERTEX
  5
5CC
  8
SK2
  6
CONTINUOUS
 62
     7
 10
19.1808070885
 20
190.4965489547
 30
0.0
  0
VERTEX
  5
5CD
  8
SK2
  6
CONTINUOUS
 62
     7
 10
19.1884261478
 20
190.5064573017
 30
0.0
  0
VERTEX
  5
5CE
  8
SK2
  6
CONTINUOUS
 62
     7
 10
19.1963408063
 20
190.5161091945
 30
0.0
  0
VERTEX
  5
5CF
  8
SK2
  6
CONTINUOUS
 62
     7
 10
19.2045961557
 20
190.5255122171
 30
0.0
  0
VERTEX
  5
5D0
  8
SK2
  6
CONTINUOUS
 62
     7
 10
19.2132372876
 20
190.5346739535
 30
0.0
  0
VERTEX
  5
5D1
  8
SK2
  6
CONTINUOUS
 62
     7
 10
19.2223058873
 20
190.5436004375
 30
0.0
  0
VERTEX
  5
5D2
  8
SK2
  6
CONTINUOUS
 62
     7
 10
19.2317996699
 20
190.5522776947
 30
0.0
  0
VERTEX
  5
5D3
  8
SK2
  6
CONTINUOUS
 62
     7
 10
19.2416857615
 20
190.5606778305
 30
0.0
  0
VERTEX
  5
5D4
  8
SK2
  6
CONTINUOUS
 62
     7
 10
19.2519306682
 20
190.5687726687
 30
0.0
  0
VERTEX
  5
5D5
  8
SK2
  6
CONTINUOUS
 62
     7
 10
19.2625008964
 20
190.5765340328
 30
0.0
  0
VERTEX
  5
5D6
  8
SK2
  6
CONTINUOUS
 62
     7
 10
19.2733629522
 20
190.5839337465
 30
0.0
  0
VERTEX
  5
5D7
  8
SK2
  6
CONTINUOUS
 62
     7
 10
19.2844833418
 20
190.5909436334
 30
0.0
  0
VERTEX
  5
5D8
  8
SK2
  6
CONTINUOUS
 62
     7
 10
19.2958285716
 20
190.5975355172
 30
0.0
  0
VERTEX
  5
5D9
  8
SK2
  6
CONTINUOUS
 62
     7
 10
19.3073651478
 20
190.6036812216
 30
0.0
  0
VERTEX
  5
5DA
  8
SK2
  6
CONTINUOUS
 62
     7
 10
19.3190595765
 20
190.60935257
 30
0.0
  0
VERTEX
  5
5DB
  8
SK2
  6
CONTINUOUS
 62
     7
 10
19.3308783642
 20
190.6145213863
 30
0.0
  0
VERTEX
  5
5DC
  8
SK2
  6
CONTINUOUS
 62
     7
 10
19.3427880185
 20
190.6191594961
 30
0.0
  0
VERTEX
  5
5DD
  8
SK2
  6
CONTINUOUS
 62
     7
 10
19.35476368
 20
190.6232503952
 30
0.0
  0
VERTEX
  5
5DE
  8
SK2
  6
CONTINUOUS
 62
     7
 10
19.3668093119
 20
190.626816542
 30
0.0
  0
VERTEX
  5
5DF
  8
SK2
  6
CONTINUOUS
 62
     7
 10
19.3789348853
 20
190.6298885167
 30
0.0
  0
VERTEX
  5
5E0
  8
SK2
  6
CONTINUOUS
 62
     7
 10
19.3911503715
 20
190.6324968998
 30
0.0
  0
VERTEX
  5
5E1
  8
SK2
  6
CONTINUOUS
 62
     7
 10
19.4034657418
 20
190.6346722715
 30
0.0
  0
VERTEX
  5
5E2
  8
SK2
  6
CONTINUOUS
 62
     7
 10
19.4158909672
 20
190.6364452121
 30
0.0
  0
VERTEX
  5
5E3
  8
SK2
  6
CONTINUOUS
 62
     7
 10
19.4284360191
 20
190.6378463019
 30
0.0
  0
VERTEX
  5
5E4
  8
SK2
  6
CONTINUOUS
 62
     7
 10
19.4411108687
 20
190.6389061213
 30
0.0
  0
VERTEX
  5
5E5
  8
SK2
  6
CONTINUOUS
 62
     7
 10
19.4539254871
 20
190.6396552505
 30
0.0
  0
VERTEX
  5
5E6
  8
SK2
  6
CONTINUOUS
 62
     7
 10
19.4668898456
 20
190.6401242699
 30
0.0
  0
VERTEX
  5
5E7
  8
SK2
  6
CONTINUOUS
 62
     7
 10
19.4800139154
 20
190.6403437598
 30
0.0
  0
VERTEX
  5
5E8
  8
SK2
  6
CONTINUOUS
 62
     7
 10
19.4933076678
 20
190.6403443005
 30
0.0
  0
VERTEX
  5
5E9
  8
SK2
  6
CONTINUOUS
 62
     7
 10
19.5067810739
 20
190.6401564723
 30
0.0
  0
VERTEX
  5
5EA
  8
SK2
  6
CONTINUOUS
 62
     7
 10
19.5204441049
 20
190.6398108555
 30
0.0
  0
VERTEX
  5
5EB
  8
SK2
  6
CONTINUOUS
 62
     7
 10
19.5343067322
 20
190.6393380304
 30
0.0
  0
VERTEX
  5
5EC
  8
SK2
  6
CONTINUOUS
 62
     7
 10
19.5483789268
 20
190.6387685774
 30
0.0
  0
SEQEND
  5
858
  8
SK2
  6
CONTINUOUS
 62
     7
  0
LINE
  5
1F2
  8
SK2
  6
CONTINUOUS
 62
     7
 10
19.5483789268
 20
190.6387685774
 30
0.0
 11
19.5483789268
 21
190.2822211579
 31
0.0
  0
POLYLINE
  5
1F3
  8
SK2
  6
CONTINUOUS
 62
     7
 66
     1
 10
0.0
 20
0.0
 30
0.0
  0
VERTEX
  5
5ED
  8
SK2
  6
CONTINUOUS
 62
     7
 10
19.5483789268
 20
190.2822211579
 30
0.0
  0
VERTEX
  5
5EE
  8
SK2
  6
CONTINUOUS
 62
     7
 10
19.5320087854
 20
190.2881224187
 30
0.0
  0
VERTEX
  5
5EF
  8
SK2
  6
CONTINUOUS
 62
     7
 10
19.5167056945
 20
190.2927964982
 30
0.0
  0
VERTEX
  5
5F0
  8
SK2
  6
CONTINUOUS
 62
     7
 10
19.5023634985
 20
190.2963614223
 30
0.0
  0
VERTEX
  5
5F1
  8
SK2
  6
CONTINUOUS
 62
     7
 10
19.4888760417
 20
190.2989352165
 30
0.0
  0
VERTEX
  5
5F2
  8
SK2
  6
CONTINUOUS
 62
     7
 10
19.4761371687
 20
190.3006359067
 30
0.0
  0
VERTEX
  5
5F3
  8
SK2
  6
CONTINUOUS
 62
     7
 10
19.4640407236
 20
190.3015815184
 30
0.0
  0
VERTEX
  5
5F4
  8
SK2
  6
CONTINUOUS
 62
     7
 10
19.452480551
 20
190.3018900774
 30
0.0
  0
VERTEX
  5
5F5
  8
SK2
  6
CONTINUOUS
 62
     7
 10
19.4413504952
 20
190.3016796094
 30
0.0
  0
VERTEX
  5
5F6
  8
SK2
  6
CONTINUOUS
 62
     7
 10
19.4305444006
 20
190.30106814
 30
0.0
  0
VERTEX
  5
5F7
  8
SK2
  6
CONTINUOUS
 62
     7
 10
19.4199619904
 20
190.300163993
 30
0.0
  0
VERTEX
  5
5F8
  8
SK2
  6
CONTINUOUS
 62
     7
 10
19.4095522238
 20
190.298994238
 30
0.0
  0
VERTEX
  5
5F9
  8
SK2
  6
CONTINUOUS
 62
     7
 10
19.399288614
 20
190.2975454226
 30
0.0
  0
VERTEX
  5
5FA
  8
SK2
  6
CONTINUOUS
 62
     7
 10
19.3891448547
 20
190.2958037966
 30
0.0
  0
VERTEX
  5
5FB
  8
SK2
  6
CONTINUOUS
 62
     7
 10
19.3790946396
 20
190.29375561
 30
0.0
  0
VERTEX
  5
5FC
  8
SK2
  6
CONTINUOUS
 62
     7
 10
19.3691116626
 20
190.2913871127
 30
0.0
  0
VERTEX
  5
5FD
  8
SK2
  6
CONTINUOUS
 62
     7
 10
19.3591696171
 20
190.2886845545
 30
0.0
  0
VERTEX
  5
5FE
  8
SK2
  6
CONTINUOUS
 62
     7
 10
19.349242197
 20
190.2856341855
 30
0.0
  0
VERTEX
  5
5FF
  8
SK2
  6
CONTINUOUS
 62
     7
 10
19.3393031373
 20
190.2822222692
 30
0.0
  0
VERTEX
  5
600
  8
SK2
  6
CONTINUOUS
 62
     7
 10
19.3293432573
 20
190.2784407761
 30
0.0
  0
VERTEX
  5
601
  8
SK2
  6
CONTINUOUS
 62
     7
 10
19.3193967158
 20
190.2742961534
 30
0.0
  0
VERTEX
  5
602
  8
SK2
  6
CONTINUOUS
 62
     7
 10
19.3095044413
 20
190.2697971095
 30
0.0
  0
VERTEX
  5
603
  8
SK2
  6
CONTINUOUS
 62
     7
 10
19.2997073624
 20
190.2649523528
 30
0.0
  0
VERTEX
  5
604
  8
SK2
  6
CONTINUOUS
 62
     7
 10
19.2900464075
 20
190.2597705919
 30
0.0
  0
VERTEX
  5
605
  8
SK2
  6
CONTINUOUS
 62
     7
 10
19.2805625053
 20
190.2542605351
 30
0.0
  0
VERTEX
  5
606
  8
SK2
  6
CONTINUOUS
 62
     7
 10
19.2712965842
 20
190.248430891
 30
0.0
  0
VERTEX
  5
607
  8
SK2
  6
CONTINUOUS
 62
     7
 10
19.2622895727
 20
190.242290368
 30
0.0
  0
VERTEX
  5
608
  8
SK2
  6
CONTINUOUS
 62
     7
 10
19.2535823994
 20
190.2358476746
 30
0.0
  0
VERTEX
  5
609
  8
SK2
  6
CONTINUOUS
 62
     7
 10
19.2452159927
 20
190.2291115192
 30
0.0
  0
VERTEX
  5
60A
  8
SK2
  6
CONTINUOUS
 62
     7
 10
19.2372300467
 20
190.2220906966
 30
0.0
  0
VERTEX
  5
60B
  8
SK2
  6
CONTINUOUS
 62
     7
 10
19.2296421758
 20
190.214795547
 30
0.0
  0
VERTEX
  5
60C
  8
SK2
  6
CONTINUOUS
 62
     7
 10
19.222450941
 20
190.2072377437
 30
0.0
  0
VERTEX
  5
60D
  8
SK2
  6
CONTINUOUS
 62
     7
 10
19.215654278
 20
190.1994290041
 30
0.0
  0
VERTEX
  5
60E
  8
SK2
  6
CONTINUOUS
 62
     7
 10
19.2092501225
 20
190.1913810454
 30
0.0
  0
VERTEX
  5
60F
  8
SK2
  6
CONTINUOUS
 62
     7
 10
19.2032364103
 20
190.1831055847
 30
0.0
  0
VERTEX
  5
610
  8
SK2
  6
CONTINUOUS
 62
     7
 10
19.1976110771
 20
190.1746143394
 30
0.0
  0
VERTEX
  5
611
  8
SK2
  6
CONTINUOUS
 62
     7
 10
19.1923720585
 20
190.1659190266
 30
0.0
  0
VERTEX
  5
612
  8
SK2
  6
CONTINUOUS
 62
     7
 10
19.1875172904
 20
190.1570313636
 30
0.0
  0
VERTEX
  5
613
  8
SK2
  6
CONTINUOUS
 62
     7
 10
19.1830447084
 20
190.1479630676
 30
0.0
  0
VERTEX
  5
614
  8
SK2
  6
CONTINUOUS
 62
     7
 10
19.1789522482
 20
190.1387258559
 30
0.0
  0
VERTEX
  5
615
  8
SK2
  6
CONTINUOUS
 62
     7
 10
19.1752378455
 20
190.1293314455
 30
0.0
  0
VERTEX
  5
616
  8
SK2
  6
CONTINUOUS
 62
     7
 10
19.1718962956
 20
190.119788726
 30
0.0
  0
VERTEX
  5
617
  8
SK2
  6
CONTINUOUS
 62
     7
 10
19.1689108569
 20
190.1100961982
 30
0.0
  0
VERTEX
  5
618
  8
SK2
  6
CONTINUOUS
 62
     7
 10
19.1662621392
 20
190.1002499778
 30
0.0
  0
VERTEX
  5
619
  8
SK2
  6
CONTINUOUS
 62
     7
 10
19.163930752
 20
190.0902461807
 30
0.0
  0
VERTEX
  5
61A
  8
SK2
  6
CONTINUOUS
 62
     7
 10
19.1618973053
 20
190.0800809228
 30
0.0
  0
VERTEX
  5
61B
  8
SK2
  6
CONTINUOUS
 62
     7
 10
19.1601424086
 20
190.0697503198
 30
0.0
  0
VERTEX
  5
61C
  8
SK2
  6
CONTINUOUS
 62
     7
 10
19.1586466718
 20
190.0592504876
 30
0.0
  0
VERTEX
  5
61D
  8
SK2
  6
CONTINUOUS
 62
     7
 10
19.1573907046
 20
190.048577542
 30
0.0
  0
VERTEX
  5
61E
  8
SK2
  6
CONTINUOUS
 62
     7
 10
19.1563551167
 20
190.0377275988
 30
0.0
  0
VERTEX
  5
61F
  8
SK2
  6
CONTINUOUS
 62
     7
 10
19.1555205178
 20
190.0266967738
 30
0.0
  0
VERTEX
  5
620
  8
SK2
  6
CONTINUOUS
 62
     7
 10
19.1548675177
 20
190.0154811829
 30
0.0
  0
VERTEX
  5
621
  8
SK2
  6
CONTINUOUS
 62
     7
 10
19.1543767261
 20
190.0040769419
 30
0.0
  0
VERTEX
  5
622
  8
SK2
  6
CONTINUOUS
 62
     7
 10
19.1540287528
 20
189.9924801666
 30
0.0
  0
VERTEX
  5
623
  8
SK2
  6
CONTINUOUS
 62
     7
 10
19.1538042074
 20
189.9806869729
 30
0.0
  0
VERTEX
  5
624
  8
SK2
  6
CONTINUOUS
 62
     7
 10
19.1536836996
 20
189.9686934764
 30
0.0
  0
VERTEX
  5
625
  8
SK2
  6
CONTINUOUS
 62
     7
 10
19.1536478393
 20
189.9564957932
 30
0.0
  0
SEQEND
  5
857
  8
SK2
  6
CONTINUOUS
 62
     7
  0
POLYLINE
  5
1F4
  8
SK2
  6
CONTINUOUS
 62
     7
 66
     1
 10
0.0
 20
0.0
 30
0.0
  0
VERTEX
  5
626
  8
SK2
  6
CONTINUOUS
 62
     7
 10
20.7844043406
 20
189.8640827947
 30
0.0
  0
VERTEX
  5
627
  8
SK2
  6
CONTINUOUS
 62
     7
 10
20.7849491159
 20
189.9082963319
 30
0.0
  0
VERTEX
  5
628
  8
SK2
  6
CONTINUOUS
 62
     7
 10
20.7848923314
 20
189.9507811725
 30
0.0
  0
VERTEX
  5
629
  8
SK2
  6
CONTINUOUS
 62
     7
 10
20.7840731015
 20
189.9917059354
 30
0.0
  0
VERTEX
  5
62A
  8
SK2
  6
CONTINUOUS
 62
     7
 10
20.7823305408
 20
190.0312392393
 30
0.0
  0
VERTEX
  5
62B
  8
SK2
  6
CONTINUOUS
 62
     7
 10
20.7795037637
 20
190.0695497031
 30
0.0
  0
VERTEX
  5
62C
  8
SK2
  6
CONTINUOUS
 62
     7
 10
20.7754318846
 20
190.1068059455
 30
0.0
  0
VERTEX
  5
62D
  8
SK2
  6
CONTINUOUS
 62
     7
 10
20.7699584717
 20
190.1431702722
 30
0.0
  0
VERTEX
  5
62E
  8
SK2
  6
CONTINUOUS
 62
     7
 10
20.7630081055
 20
190.178690148
 30
0.0
  0
VERTEX
  5
62F
  8
SK2
  6
CONTINUOUS
 62
     7
 10
20.7545760121
 20
190.2133128934
 30
0.0
  0
VERTEX
  5
630
  8
SK2
  6
CONTINUOUS
 62
     7
 10
20.7446597853
 20
190.2469824724
 30
0.0
  0
VERTEX
  5
631
  8
SK2
  6
CONTINUOUS
 62
     7
 10
20.733257019
 20
190.2796428491
 30
0.0
  0
VERTEX
  5
632
  8
SK2
  6
CONTINUOUS
 62
     7
 10
20.7203653069
 20
190.3112379874
 30
0.0
  0
VERTEX
  5
633
  8
SK2
  6
CONTINUOUS
 62
     7
 10
20.705982243
 20
190.3417118512
 30
0.0
  0
VERTEX
  5
634
  8
SK2
  6
CONTINUOUS
 62
     7
 10
20.6901054209
 20
190.3710084048
 30
0.0
  0
VERTEX
  5
635
  8
SK2
  6
CONTINUOUS
 62
     7
 10
20.6727324347
 20
190.3990716119
 30
0.0
  0
VERTEX
  5
636
  8
SK2
  6
CONTINUOUS
 62
     7
 10
20.653860878
 20
190.4258454367
 30
0.0
  0
VERTEX
  5
637
  8
SK2
  6
CONTINUOUS
 62
     7
 10
20.6334883447
 20
190.4512738431
 30
0.0
  0
VERTEX
  5
638
  8
SK2
  6
CONTINUOUS
 62
     7
 10
20.6116269989
 20
190.4753070343
 30
0.0
  0
VERTEX
  5
639
  8
SK2
  6
CONTINUOUS
 62
     7
 10
20.5883582427
 20
190.4979248623
 30
0.0
  0
VERTEX
  5
63A
  8
SK2
  6
CONTINUOUS
 62
     7
 10
20.563784023
 20
190.5191159766
 30
0.0
  0
VERTEX
  5
63B
  8
SK2
  6
CONTINUOUS
 62
     7
 10
20.53800629
 20
190.5388690281
 30
0.0
  0
VERTEX
  5
63C
  8
SK2
  6
CONTINUOUS
 62
     7
 10
20.511126994
 20
190.5571726679
 30
0.0
  0
VERTEX
  5
63D
  8
SK2
  6
CONTINUOUS
 62
     7
 10
20.4832480851
 20
190.5740155467
 30
0.0
  0
VERTEX
  5
63E
  8
SK2
  6
CONTINUOUS
 62
     7
 10
20.4544715137
 20
190.5893863156
 30
0.0
  0
VERTEX
  5
63F
  8
SK2
  6
CONTINUOUS
 62
     7
 10
20.4248992298
 20
190.6032736256
 30
0.0
  0
VERTEX
  5
640
  8
SK2
  6
CONTINUOUS
 62
     7
 10
20.3946331838
 20
190.6156661275
 30
0.0
  0
VERTEX
  5
641
  8
SK2
  6
CONTINUOUS
 62
     7
 10
20.3637753258
 20
190.6265524723
 30
0.0
  0
VERTEX
  5
642
  8
SK2
  6
CONTINUOUS
 62
     7
 10
20.3324271346
 20
190.6359212525
 30
0.0
  0
VERTEX
  5
643
  8
SK2
  6
CONTINUOUS
 62
     7
 10
20.3006747832
 20
190.6437591626
 30
0.0
  0
VERTEX
  5
644
  8
SK2
  6
CONTINUOUS
 62
     7
 10
20.2685861524
 20
190.6500506285
 30
0.0
  0
VERTEX
  5
645
  8
SK2
  6
CONTINUOUS
 62
     7
 10
20.2362280482
 20
190.6547799432
 30
0.0
  0
VERTEX
  5
646
  8
SK2
  6
CONTINUOUS
 62
     7
 10
20.2036672768
 20
190.6579313994
 30
0.0
  0
VERTEX
  5
647
  8
SK2
  6
CONTINUOUS
 62
     7
 10
20.1709706444
 20
190.6594892899
 30
0.0
  0
VERTEX
  5
648
  8
SK2
  6
CONTINUOUS
 62
     7
 10
20.1382049571
 20
190.6594379077
 30
0.0
  0
VERTEX
  5
649
  8
SK2
  6
CONTINUOUS
 62
     7
 10
20.105437021
 20
190.6577615453
 30
0.0
  0
VERTEX
  5
64A
  8
SK2
  6
CONTINUOUS
 62
     7
 10
20.0727336422
 20
190.6544444958
 30
0.0
  0
VERTEX
  5
64B
  8
SK2
  6
CONTINUOUS
 62
     7
 10
20.0401616269
 20
190.6494710519
 30
0.0
  0
VERTEX
  5
64C
  8
SK2
  6
CONTINUOUS
 62
     7
 10
20.0077877811
 20
190.6428255064
 30
0.0
  0
VERTEX
  5
64D
  8
SK2
  6
CONTINUOUS
 62
     7
 10
19.9756789112
 20
190.6344921521
 30
0.0
  0
VERTEX
  5
64E
  8
SK2
  6
CONTINUOUS
 62
     7
 10
19.9439036136
 20
190.6244559244
 30
0.0
  0
VERTEX
  5
64F
  8
SK2
  6
CONTINUOUS
 62
     7
 10
19.9125719559
 20
190.6127166416
 30
0.0
  0
VERTEX
  5
650
  8
SK2
  6
CONTINUOUS
 62
     7
 10
19.8818356373
 20
190.5992890623
 30
0.0
  0
VERTEX
  5
651
  8
SK2
  6
CONTINUOUS
 62
     7
 10
19.8518481796
 20
190.5841885994
 30
0.0
  0
VERTEX
  5
652
  8
SK2
  6
CONTINUOUS
 62
     7
 10
19.8227631048
 20
190.5674306658
 30
0.0
  0
VERTEX
  5
653
  8
SK2
  6
CONTINUOUS
 62
     7
 10
19.7947339346
 20
190.5490306744
 30
0.0
  0
VERTEX
  5
654
  8
SK2
  6
CONTINUOUS
 62
     7
 10
19.7679141911
 20
190.529004038
 30
0.0
  0
VERTEX
  5
655
  8
SK2
  6
CONTINUOUS
 62
     7
 10
19.7424573961
 20
190.5073661694
 30
0.0
  0
VERTEX
  5
656
  8
SK2
  6
CONTINUOUS
 62
     7
 10
19.7184926446
 20
190.484146719
 30
0.0
  0
VERTEX
  5
657
  8
SK2
  6
CONTINUOUS
 62
     7
 10
19.6960329452
 20
190.4594429995
 30
0.0
  0
VERTEX
  5
658
  8
SK2
  6
CONTINUOUS
 62
     7
 10
19.6750568568
 20
190.433372403
 30
0.0
  0
VERTEX
  5
659
  8
SK2
  6
CONTINUOUS
 62
     7
 10
19.6555429329
 20
190.4060523246
 30
0.0
  0
VERTEX
  5
65A
  8
SK2
  6
CONTINUOUS
 62
     7
 10
19.637469727
 20
190.3776001596
 30
0.0
  0
VERTEX
  5
65B
  8
SK2
  6
CONTINUOUS
 62
     7
 10
19.6208157927
 20
190.3481333032
 30
0.0
  0
VERTEX
  5
65C
  8
SK2
  6
CONTINUOUS
 62
     7
 10
19.6055596834
 20
190.3177691506
 30
0.0
  0
VERTEX
  5
65D
  8
SK2
  6
CONTINUOUS
 62
     7
 10
19.5916799527
 20
190.2866250971
 30
0.0
  0
VERTEX
  5
65E
  8
SK2
  6
CONTINUOUS
 62
     7
 10
19.5791551541
 20
190.2548185378
 30
0.0
  0
VERTEX
  5
65F
  8
SK2
  6
CONTINUOUS
 62
     7
 10
19.5679641933
 20
190.2224658757
 30
0.0
  0
VERTEX
  5
660
  8
SK2
  6
CONTINUOUS
 62
     7
 10
19.5580960378
 20
190.1896551721
 30
0.0
  0
VERTEX
  5
661
  8
SK2
  6
CONTINUOUS
 62
     7
 10
19.5495509434
 20
190.1564426908
 30
0.0
  0
VERTEX
  5
662
  8
SK2
  6
CONTINUOUS
 62
     7
 10
19.5423297645
 20
190.1228830095
 30
0.0
  0
VERTEX
  5
663
  8
SK2
  6
CONTINUOUS
 62
     7
 10
19.5364333557
 20
190.0890307057
 30
0.0
  0
VERTEX
  5
664
  8
SK2
  6
CONTINUOUS
 62
     7
 10
19.5318625715
 20
190.0549403571
 30
0.0
  0
VERTEX
  5
665
  8
SK2
  6
CONTINUOUS
 62
     7
 10
19.5286182662
 20
190.0206665412
 30
0.0
  0
VERTEX
  5
666
  8
SK2
  6
CONTINUOUS
 62
     7
 10
19.5267012945
 20
189.9862638358
 30
0.0
  0
VERTEX
  5
667
  8
SK2
  6
CONTINUOUS
 62
     7
 10
19.5261125108
 20
189.9517868184
 30
0.0
  0
VERTEX
  5
668
  8
SK2
  6
CONTINUOUS
 62
     7
 10
19.5268527696
 20
189.9172900667
 30
0.0
  0
VERTEX
  5
669
  8
SK2
  6
CONTINUOUS
 62
     7
 10
19.5289229252
 20
189.8828281582
 30
0.0
  0
VERTEX
  5
66A
  8
SK2
  6
CONTINUOUS
 62
     7
 10
19.5323238324
 20
189.8484556707
 30
0.0
  0
VERTEX
  5
66B
  8
SK2
  6
CONTINUOUS
 62
     7
 10
19.5370563454
 20
189.8142271817
 30
0.0
  0
VERTEX
  5
66C
  8
SK2
  6
CONTINUOUS
 62
     7
 10
19.5431213188
 20
189.7801972688
 30
0.0
  0
VERTEX
  5
66D
  8
SK2
  6
CONTINUOUS
 62
     7
 10
19.5505196071
 20
189.7464205097
 30
0.0
  0
VERTEX
  5
66E
  8
SK2
  6
CONTINUOUS
 62
     7
 10
19.5592520648
 20
189.712951482
 30
0.0
  0
VERTEX
  5
66F
  8
SK2
  6
CONTINUOUS
 62
     7
 10
19.5693195462
 20
189.6798447633
 30
0.0
  0
VERTEX
  5
670
  8
SK2
  6
CONTINUOUS
 62
     7
 10
19.5807232001
 20
189.6471554436
 30
0.0
  0
VERTEX
  5
671
  8
SK2
  6
CONTINUOUS
 62
     7
 10
19.5934874427
 20
189.6149791528
 30
0.0
  0
VERTEX
  5
672
  8
SK2
  6
CONTINUOUS
 62
     7
 10
19.6076764242
 20
189.5834807503
 30
0.0
  0
VERTEX
  5
673
  8
SK2
  6
CONTINUOUS
 62
     7
 10
19.6233581806
 20
189.5528318656
 30
0.0
  0
VERTEX
  5
674
  8
SK2
  6
CONTINUOUS
 62
     7
 10
19.6406007481
 20
189.5232041287
 30
0.0
  0
VERTEX
  5
675
  8
SK2
  6
CONTINUOUS
 62
     7
 10
19.6594721628
 20
189.4947691692
 30
0.0
  0
VERTEX
  5
676
  8
SK2
  6
CONTINUOUS
 62
     7
 10
19.6800404607
 20
189.467698617
 30
0.0
  0
VERTEX
  5
677
  8
SK2
  6
CONTINUOUS
 62
     7
 10
19.7023723392
 20
189.4421630871
 30
0.0
  0
VERTEX
  5
678
  8
SK2
  6
CONTINUOUS
 62
     7
 10
19.7264538002
 20
189.4182720359
 30
0.0
  0
VERTEX
  5
679
  8
SK2
  6
CONTINUOUS
 62
     7
 10
19.7521455575
 20
189.3960399653
 30
0.0
  0
VERTEX
  5
67A
  8
SK2
  6
CONTINUOUS
 62
     7
 10
19.7792975231
 20
189.3754731902
 30
0.0
  0
VERTEX
  5
67B
  8
SK2
  6
CONTINUOUS
 62
     7
 10
19.8077596092
 20
189.3565780254
 30
0.0
  0
VERTEX
  5
67C
  8
SK2
  6
CONTINUOUS
 62
     7
 10
19.8373817276
 20
189.3393607859
 30
0.0
  0
VERTEX
  5
67D
  8
SK2
  6
CONTINUOUS
 62
     7
 10
19.8680137903
 20
189.3238277866
 30
0.0
  0
VERTEX
  5
67E
  8
SK2
  6
CONTINUOUS
 62
     7
 10
19.8995057093
 20
189.3099853424
 30
0.0
  0
VERTEX
  5
67F
  8
SK2
  6
CONTINUOUS
 62
     7
 10
19.9317073967
 20
189.2978397682
 30
0.0
  0
VERTEX
  5
680
  8
SK2
  6
CONTINUOUS
 62
     7
 10
19.9644687643
 20
189.287397379
 30
0.0
  0
VERTEX
  5
681
  8
SK2
  6
CONTINUOUS
 62
     7
 10
19.9976511383
 20
189.2786600273
 30
0.0
  0
VERTEX
  5
682
  8
SK2
  6
CONTINUOUS
 62
     7
 10
20.0311677422
 20
189.2716092766
 30
0.0
  0
VERTEX
  5
683
  8
SK2
  6
CONTINUOUS
 62
     7
 10
20.0649465417
 20
189.2662209267
 30
0.0
  0
VERTEX
  5
684
  8
SK2
  6
CONTINUOUS
 62
     7
 10
20.0989155035
 20
189.2624707773
 30
0.0
  0
VERTEX
  5
685
  8
SK2
  6
CONTINUOUS
 62
     7
 10
20.1330025942
 20
189.2603346279
 30
0.0
  0
VERTEX
  5
686
  8
SK2
  6
CONTINUOUS
 62
     7
 10
20.1671357805
 20
189.2597882781
 30
0.0
  0
VERTEX
  5
687
  8
SK2
  6
CONTINUOUS
 62
     7
 10
20.2012430291
 20
189.2608075274
 30
0.0
  0
VERTEX
  5
688
  8
SK2
  6
CONTINUOUS
 62
     7
 10
20.2352523066
 20
189.2633681755
 30
0.0
  0
VERTEX
  5
689
  8
SK2
  6
CONTINUOUS
 62
     7
 10
20.2690915799
 20
189.2674460219
 30
0.0
  0
VERTEX
  5
68A
  8
SK2
  6
CONTINUOUS
 62
     7
 10
20.3026888154
 20
189.2730168662
 30
0.0
  0
VERTEX
  5
68B
  8
SK2
  6
CONTINUOUS
 62
     7
 10
20.33597198
 20
189.2800565079
 30
0.0
  0
VERTEX
  5
68C
  8
SK2
  6
CONTINUOUS
 62
     7
 10
20.3688661177
 20
189.2885410577
 30
0.0
  0
VERTEX
  5
68D
  8
SK2
  6
CONTINUOUS
 62
     7
 10
20.4012679045
 20
189.2984496462
 30
0.0
  0
VERTEX
  5
68E
  8
SK2
  6
CONTINUOUS
 62
     7
 10
20.4330580673
 20
189.3097631019
 30
0.0
  0
VERTEX
  5
68F
  8
SK2
  6
CONTINUOUS
 62
     7
 10
20.4641171549
 20
189.3224622719
 30
0.0
  0
VERTEX
  5
690
  8
SK2
  6
CONTINUOUS
 62
     7
 10
20.4943257166
 20
189.3365280038
 30
0.0
  0
VERTEX
  5
691
  8
SK2
  6
CONTINUOUS
 62
     7
 10
20.5235643013
 20
189.3519411447
 30
0.0
  0
VERTEX
  5
692
  8
SK2
  6
CONTINUOUS
 62
     7
 10
20.5517134582
 20
189.3686825421
 30
0.0
  0
VERTEX
  5
693
  8
SK2
  6
CONTINUOUS
 62
     7
 10
20.5786537362
 20
189.3867330433
 30
0.0
  0
VERTEX
  5
694
  8
SK2
  6
CONTINUOUS
 62
     7
 10
20.6042658953
 20
189.4060744313
 30
0.0
  0
VERTEX
  5
695
  8
SK2
  6
CONTINUOUS
 62
     7
 10
20.6284427318
 20
189.4267419122
 30
0.0
  0
VERTEX
  5
696
  8
SK2
  6
CONTINUOUS
 62
     7
 10
20.651095354
 20
189.4488519694
 30
0.0
  0
VERTEX
  5
697
  8
SK2
  6
CONTINUOUS
 62
     7
 10
20.6721364058
 20
189.4725279022
 30
0.0
  0
VERTEX
  5
698
  8
SK2
  6
CONTINUOUS
 62
     7
 10
20.6914785314
 20
189.4978930099
 30
0.0
  0
VERTEX
  5
699
  8
SK2
  6
CONTINUOUS
 62
     7
 10
20.7090343746
 20
189.5250705921
 30
0.0
  0
VERTEX
  5
69A
  8
SK2
  6
CONTINUOUS
 62
     7
 10
20.7247165373
 20
189.5541840657
 30
0.0
  0
VERTEX
  5
69B
  8
SK2
  6
CONTINUOUS
 62
     7
 10
20.7383501821
 20
189.5856003257
 30
0.0
  0
VERTEX
  5
69C
  8
SK2
  6
CONTINUOUS
 62
     7
 10
20.7494890655
 20
189.6204420082
 30
0.0
  0
VERTEX
  5
69D
  8
SK2
  6
CONTINUOUS
 62
     7
 10
20.7576344412
 20
189.6599779464
 30
0.0
  0
VERTEX
  5
69E
  8
SK2
  6
CONTINUOUS
 62
     7
 10
20.7622875626
 20
189.7054769737
 30
0.0
  0
SEQEND
  5
856
  8
SK2
  6
CONTINUOUS
 62
     7
  0
LINE
  5
1F5
  8
SK2
  6
CONTINUOUS
 62
     7
 10
19.8883408864
 20
189.8640827947
 30
0.0
 11
20.7844043406
 21
189.8640827947
 31
0.0
  0
POLYLINE
  5
1F6
  8
SK2
  6
CONTINUOUS
 62
     7
 66
     1
 10
0.0
 20
0.0
 30
0.0
  0
VERTEX
  5
69F
  8
SK2
  6
CONTINUOUS
 62
     7
 10
19.8883408864
 20
189.8640827947
 30
0.0
  0
VERTEX
  5
6A0
  8
SK2
  6
CONTINUOUS
 62
     7
 10
19.8894853546
 20
189.8461902378
 30
0.0
  0
VERTEX
  5
6A1
  8
SK2
  6
CONTINUOUS
 62
     7
 10
19.8908321887
 20
189.8290485145
 30
0.0
  0
VERTEX
  5
6A2
  8
SK2
  6
CONTINUOUS
 62
     7
 10
19.8924105029
 20
189.8126216835
 30
0.0
  0
VERTEX
  5
6A3
  8
SK2
  6
CONTINUOUS
 62
     7
 10
19.8942494117
 20
189.7968738039
 30
0.0
  0
VERTEX
  5
6A4
  8
SK2
  6
CONTINUOUS
 62
     7
 10
19.8963780295
 20
189.7817689343
 30
0.0
  0
VERTEX
  5
6A5
  8
SK2
  6
CONTINUOUS
 62
     7
 10
19.8988254706
 20
189.7672711338
 30
0.0
  0
VERTEX
  5
6A6
  8
SK2
  6
CONTINUOUS
 62
     7
 10
19.9016208494
 20
189.7533444611
 30
0.0
  0
VERTEX
  5
6A7
  8
SK2
  6
CONTINUOUS
 62
     7
 10
19.9047932802
 20
189.7399529751
 30
0.0
  0
VERTEX
  5
6A8
  8
SK2
  6
CONTINUOUS
 62
     7
 10
19.9083718776
 20
189.7270607346
 30
0.0
  0
VERTEX
  5
6A9
  8
SK2
  6
CONTINUOUS
 62
     7
 10
19.9123857558
 20
189.7146317986
 30
0.0
  0
VERTEX
  5
6AA
  8
SK2
  6
CONTINUOUS
 62
     7
 10
19.9168640292
 20
189.7026302258
 30
0.0
  0
VERTEX
  5
6AB
  8
SK2
  6
CONTINUOUS
 62
     7
 10
19.9218358122
 20
189.6910200752
 30
0.0
  0
VERTEX
  5
6AC
  8
SK2
  6
CONTINUOUS
 62
     7
 10
19.9273302192
 20
189.6797654056
 30
0.0
  0
VERTEX
  5
6AD
  8
SK2
  6
CONTINUOUS
 62
     7
 10
19.9333763645
 20
189.6688302758
 30
0.0
  0
VERTEX
  5
6AE
  8
SK2
  6
CONTINUOUS
 62
     7
 10
19.9400033625
 20
189.6581787447
 30
0.0
  0
VERTEX
  5
6AF
  8
SK2
  6
CONTINUOUS
 62
     7
 10
19.9472399687
 20
189.6477754428
 30
0.0
  0
VERTEX
  5
6B0
  8
SK2
  6
CONTINUOUS
 62
     7
 10
19.9550962898
 20
189.6376146973
 30
0.0
  0
VERTEX
  5
6B1
  8
SK2
  6
CONTINUOUS
 62
     7
 10
19.9635550761
 20
189.6277343989
 30
0.0
  0
VERTEX
  5
6B2
  8
SK2
  6
CONTINUOUS
 62
     7
 10
19.9725968968
 20
189.6181759111
 30
0.0
  0
VERTEX
  5
6B3
  8
SK2
  6
CONTINUOUS
 62
     7
 10
19.9822023213
 20
189.6089805977
 30
0.0
  0
VERTEX
  5
6B4
  8
SK2
  6
CONTINUOUS
 62
     7
 10
19.9923519189
 20
189.6001898224
 30
0.0
  0
VERTEX
  5
6B5
  8
SK2
  6
CONTINUOUS
 62
     7
 10
20.0030262588
 20
189.5918449489
 30
0.0
  0
VERTEX
  5
6B6
  8
SK2
  6
CONTINUOUS
 62
     7
 10
20.0142059103
 20
189.5839873408
 30
0.0
  0
VERTEX
  5
6B7
  8
SK2
  6
CONTINUOUS
 62
     7
 10
20.0258714427
 20
189.5766583619
 30
0.0
  0
VERTEX
  5
6B8
  8
SK2
  6
CONTINUOUS
 62
     7
 10
20.0380034252
 20
189.569899376
 30
0.0
  0
VERTEX
  5
6B9
  8
SK2
  6
CONTINUOUS
 62
     7
 10
20.0505824272
 20
189.5637517465
 30
0.0
  0
VERTEX
  5
6BA
  8
SK2
  6
CONTINUOUS
 62
     7
 10
20.0635890179
 20
189.5582568374
 30
0.0
  0
VERTEX
  5
6BB
  8
SK2
  6
CONTINUOUS
 62
     7
 10
20.0770037666
 20
189.5534560123
 30
0.0
  0
VERTEX
  5
6BC
  8
SK2
  6
CONTINUOUS
 62
     7
 10
20.0908027381
 20
189.5493859331
 30
0.0
  0
VERTEX
  5
6BD
  8
SK2
  6
CONTINUOUS
 62
     7
 10
20.1049374504
 20
189.5460576401
 30
0.0
  0
VERTEX
  5
6BE
  8
SK2
  6
CONTINUOUS
 62
     7
 10
20.1193511007
 20
189.5434734886
 30
0.0
  0
VERTEX
  5
6BF
  8
SK2
  6
CONTINUOUS
 62
     7
 10
20.1339868796
 20
189.5416358269
 30
0.0
  0
VERTEX
  5
6C0
  8
SK2
  6
CONTINUOUS
 62
     7
 10
20.1487879779
 20
189.5405470033
 30
0.0
  0
VERTEX
  5
6C1
  8
SK2
  6
CONTINUOUS
 62
     7
 10
20.163697586
 20
189.540209366
 30
0.0
  0
VERTEX
  5
6C2
  8
SK2
  6
CONTINUOUS
 62
     7
 10
20.1786588947
 20
189.5406252633
 30
0.0
  0
VERTEX
  5
6C3
  8
SK2
  6
CONTINUOUS
 62
     7
 10
20.1936150945
 20
189.5417970436
 30
0.0
  0
VERTEX
  5
6C4
  8
SK2
  6
CONTINUOUS
 62
     7
 10
20.208509376
 20
189.5437270552
 30
0.0
  0
VERTEX
  5
6C5
  8
SK2
  6
CONTINUOUS
 62
     7
 10
20.22328493
 20
189.5464176462
 30
0.0
  0
VERTEX
  5
6C6
  8
SK2
  6
CONTINUOUS
 62
     7
 10
20.237884947
 20
189.5498711651
 30
0.0
  0
VERTEX
  5
6C7
  8
SK2
  6
CONTINUOUS
 62
     7
 10
20.2522526175
 20
189.5540899601
 30
0.0
  0
VERTEX
  5
6C8
  8
SK2
  6
CONTINUOUS
 62
     7
 10
20.2663311374
 20
189.5590762976
 30
0.0
  0
VERTEX
  5
6C9
  8
SK2
  6
CONTINUOUS
 62
     7
 10
20.2800644872
 20
189.5648198555
 30
0.0
  0
VERTEX
  5
6CA
  8
SK2
  6
CONTINUOUS
 62
     7
 10
20.2933982707
 20
189.5712842698
 30
0.0
  0
VERTEX
  5
6CB
  8
SK2
  6
CONTINUOUS
 62
     7
 10
20.3062782931
 20
189.5784299497
 30
0.0
  0
VERTEX
  5
6CC
  8
SK2
  6
CONTINUOUS
 62
     7
 10
20.3186503595
 20
189.5862173043
 30
0.0
  0
VERTEX
  5
6CD
  8
SK2
  6
CONTINUOUS
 62
     7
 10
20.330460275
 20
189.5946067425
 30
0.0
  0
VERTEX
  5
6CE
  8
SK2
  6
CONTINUOUS
 62
     7
 10
20.3416538446
 20
189.6035586736
 30
0.0
  0
VERTEX
  5
6CF
  8
SK2
  6
CONTINUOUS
 62
     7
 10
20.3521768735
 20
189.6130335066
 30
0.0
  0
VERTEX
  5
6D0
  8
SK2
  6
CONTINUOUS
 62
     7
 10
20.3619751669
 20
189.6229916505
 30
0.0
  0
VERTEX
  5
6D1
  8
SK2
  6
CONTINUOUS
 62
     7
 10
20.3709945297
 20
189.6333935146
 30
0.0
  0
VERTEX
  5
6D2
  8
SK2
  6
CONTINUOUS
 62
     7
 10
20.3791807671
 20
189.6441995077
 30
0.0
  0
VERTEX
  5
6D3
  8
SK2
  6
CONTINUOUS
 62
     7
 10
20.3864854947
 20
189.6553732038
 30
0.0
  0
VERTEX
  5
6D4
  8
SK2
  6
CONTINUOUS
 62
     7
 10
20.3930073215
 20
189.6669582363
 30
0.0
  0
VERTEX
  5
6D5
  8
SK2
  6
CONTINUOUS
 62
     7
 10
20.3989996751
 20
189.6790825602
 30
0.0
  0
VERTEX
  5
6D6
  8
SK2
  6
CONTINUOUS
 62
     7
 10
20.4047233597
 20
189.6918781484
 30
0.0
  0
VERTEX
  5
6D7
  8
SK2
  6
CONTINUOUS
 62
     7
 10
20.4104391797
 20
189.7054769737
 30
0.0
  0
SEQEND
  5
855
  8
SK2
  6
CONTINUOUS
 62
     7
  0
LINE
  5
1F7
  8
SK2
  6
CONTINUOUS
 62
     7
 10
20.4104391797
 20
189.7054769737
 30
0.0
 11
20.7622875626
 21
189.7054769737
 31
0.0
  0
LINE
  5
1F8
  8
SK2
  6
CONTINUOUS
 62
     7
 10
21.3855899487
 20
187.2800436062
 30
0.0
 11
21.3855899487
 21
188.5910856771
 31
0.0
  0
LINE
  5
1F9
  8
SK2
  6
CONTINUOUS
 62
     7
 10
21.3855899487
 20
188.5910856771
 30
0.0
 11
21.7416335812
 21
188.5910856771
 31
0.0
  0
LINE
  5
1FA
  8
SK2
  6
CONTINUOUS
 62
     7
 10
21.7416335812
 20
188.5910856771
 30
0.0
 11
21.7416335812
 21
187.2800436062
 31
0.0
  0
LINE
  5
1FB
  8
SK2
  6
CONTINUOUS
 62
     7
 10
21.7416335812
 20
187.2800436062
 30
0.0
 11
21.3855899487
 21
187.2800436062
 31
0.0
  0
LINE
  5
1FC
  8
SK2
  6
CONTINUOUS
 62
     7
 10
21.3777751309
 20
189.0485464676
 30
0.0
 11
21.3777751309
 21
188.7854244211
 31
0.0
  0
POLYLINE
  5
1FD
  8
SK2
  6
CONTINUOUS
 62
     7
 66
     1
 10
0.0
 20
0.0
 30
0.0
  0
VERTEX
  5
6D8
  8
SK2
  6
CONTINUOUS
 62
     7
 10
21.8324763735
 20
189.4835708176
 30
0.0
  0
VERTEX
  5
6D9
  8
SK2
  6
CONTINUOUS
 62
     7
 10
21.8327368156
 20
189.4702749949
 30
0.0
  0
VERTEX
  5
6DA
  8
SK2
  6
CONTINUOUS
 62
     7
 10
21.8330019672
 20
189.4572541865
 30
0.0
  0
VERTEX
  5
6DB
  8
SK2
  6
CONTINUOUS
 62
     7
 10
21.8332647955
 20
189.4444901045
 30
0.0
  0
VERTEX
  5
6DC
  8
SK2
  6
CONTINUOUS
 62
     7
 10
21.8335182679
 20
189.4319644612
 30
0.0
  0
VERTEX
  5
6DD
  8
SK2
  6
CONTINUOUS
 62
     7
 10
21.8337553516
 20
189.4196589686
 30
0.0
  0
VERTEX
  5
6DE
  8
SK2
  6
CONTINUOUS
 62
     7
 10
21.833969014
 20
189.407555339
 30
0.0
  0
VERTEX
  5
6DF
  8
SK2
  6
CONTINUOUS
 62
     7
 10
21.8341522224
 20
189.3956352845
 30
0.0
  0
VERTEX
  5
6E0
  8
SK2
  6
CONTINUOUS
 62
     7
 10
21.8342979441
 20
189.3838805172
 30
0.0
  0
VERTEX
  5
6E1
  8
SK2
  6
CONTINUOUS
 62
     7
 10
21.8343991463
 20
189.3722727493
 30
0.0
  0
VERTEX
  5
6E2
  8
SK2
  6
CONTINUOUS
 62
     7
 10
21.8344487964
 20
189.3607936931
 30
0.0
  0
VERTEX
  5
6E3
  8
SK2
  6
CONTINUOUS
 62
     7
 10
21.8344398618
 20
189.3494250605
 30
0.0
  0
VERTEX
  5
6E4
  8
SK2
  6
CONTINUOUS
 62
     7
 10
21.8343653096
 20
189.3381485639
 30
0.0
  0
VERTEX
  5
6E5
  8
SK2
  6
CONTINUOUS
 62
     7
 10
21.8342181073
 20
189.3269459153
 30
0.0
  0
VERTEX
  5
6E6
  8
SK2
  6
CONTINUOUS
 62
     7
 10
21.833990035
 20
189.3157993244
 30
0.0
  0
VERTEX
  5
6E7
  8
SK2
  6
CONTINUOUS
 62
     7
 10
21.8336469857
 20
189.3047018512
 30
0.0
  0
VERTEX
  5
6E8
  8
SK2
  6
CONTINUOUS
 62
     7
 10
21.8331297275
 20
189.2936570859
 30
0.0
  0
VERTEX
  5
6E9
  8
SK2
  6
CONTINUOUS
 62
     7
 10
21.832377994
 20
189.2826690527
 30
0.0
  0
VERTEX
  5
6EA
  8
SK2
  6
CONTINUOUS
 62
     7
 10
21.8313315188
 20
189.2717417754
 30
0.0
  0
VERTEX
  5
6EB
  8
SK2
  6
CONTINUOUS
 62
     7
 10
21.8299300356
 20
189.260879278
 30
0.0
  0
VERTEX
  5
6EC
  8
SK2
  6
CONTINUOUS
 62
     7
 10
21.828113278
 20
189.2500855846
 30
0.0
  0
VERTEX
  5
6ED
  8
SK2
  6
CONTINUOUS
 62
     7
 10
21.8258209796
 20
189.2393647192
 30
0.0
  0
VERTEX
  5
6EE
  8
SK2
  6
CONTINUOUS
 62
     7
 10
21.822992874
 20
189.2287207056
 30
0.0
  0
VERTEX
  5
6EF
  8
SK2
  6
CONTINUOUS
 62
     7
 10
21.8195686949
 20
189.2181575679
 30
0.0
  0
VERTEX
  5
6F0
  8
SK2
  6
CONTINUOUS
 62
     7
 10
21.8154894981
 20
189.2076798562
 30
0.0
  0
VERTEX
  5
6F1
  8
SK2
  6
CONTINUOUS
 62
     7
 10
21.8107513135
 20
189.1973139943
 30
0.0
  0
VERTEX
  5
6F2
  8
SK2
  6
CONTINUOUS
 62
     7
 10
21.805423724
 20
189.1871156721
 30
0.0
  0
VERTEX
  5
6F3
  8
SK2
  6
CONTINUOUS
 62
     7
 10
21.7995814494
 20
189.1771426233
 30
0.0
  0
VERTEX
  5
6F4
  8
SK2
  6
CONTINUOUS
 62
     7
 10
21.7932992097
 20
189.1674525819
 30
0.0
  0
VERTEX
  5
6F5
  8
SK2
  6
CONTINUOUS
 62
     7
 10
21.7866517246
 20
189.1581032817
 30
0.0
  0
VERTEX
  5
6F6
  8
SK2
  6
CONTINUOUS
 62
     7
 10
21.7797137141
 20
189.1491524565
 30
0.0
  0
VERTEX
  5
6F7
  8
SK2
  6
CONTINUOUS
 62
     7
 10
21.7725586525
 20
189.1406568174
 30
0.0
  0
VERTEX
  5
6F8
  8
SK2
  6
CONTINUOUS
 62
     7
 10
21.7652233762
 20
189.132642985
 30
0.0
  0
VERTEX
  5
6F9
  8
SK2
  6
CONTINUOUS
 62
     7
 10
21.7577029986
 20
189.1251033134
 30
0.0
  0
VERTEX
  5
6FA
  8
SK2
  6
CONTINUOUS
 62
     7
 10
21.7499903655
 20
189.1180282945
 30
0.0
  0
VERTEX
  5
6FB
  8
SK2
  6
CONTINUOUS
 62
     7
 10
21.7420783228
 20
189.1114084202
 30
0.0
  0
VERTEX
  5
6FC
  8
SK2
  6
CONTINUOUS
 62
     7
 10
21.7339597164
 20
189.1052341825
 30
0.0
  0
VERTEX
  5
6FD
  8
SK2
  6
CONTINUOUS
 62
     7
 10
21.7256273921
 20
189.0994960731
 30
0.0
  0
VERTEX
  5
6FE
  8
SK2
  6
CONTINUOUS
 62
     7
 10
21.7170741959
 20
189.094184584
 30
0.0
  0
VERTEX
  5
6FF
  8
SK2
  6
CONTINUOUS
 62
     7
 10
21.7082929735
 20
189.089290207
 30
0.0
  0
VERTEX
  5
700
  8
SK2
  6
CONTINUOUS
 62
     7
 10
21.6992765709
 20
189.0848034341
 30
0.0
  0
VERTEX
  5
701
  8
SK2
  6
CONTINUOUS
 62
     7
 10
21.6900210431
 20
189.0807129051
 30
0.0
  0
VERTEX
  5
702
  8
SK2
  6
CONTINUOUS
 62
     7
 10
21.6805406213
 20
189.0769967712
 30
0.0
  0
VERTEX
  5
703
  8
SK2
  6
CONTINUOUS
 62
     7
 10
21.6708559277
 20
189.0736294952
 30
0.0
  0
VERTEX
  5
704
  8
SK2
  6
CONTINUOUS
 62
     7
 10
21.6609875916
 20
189.0705855358
 30
0.0
  0
VERTEX
  5
705
  8
SK2
  6
CONTINUOUS
 62
     7
 10
21.6509562424
 20
189.0678393518
 30
0.0
  0
VERTEX
  5
706
  8
SK2
  6
CONTINUOUS
 62
     7
 10
21.6407825095
 20
189.065365402
 30
0.0
  0
VERTEX
  5
707
  8
SK2
  6
CONTINUOUS
 62
     7
 10
21.6304870222
 20
189.0631381452
 30
0.0
  0
VERTEX
  5
708
  8
SK2
  6
CONTINUOUS
 62
     7
 10
21.62009041
 20
189.0611320401
 30
0.0
  0
VERTEX
  5
709
  8
SK2
  6
CONTINUOUS
 62
     7
 10
21.6096133021
 20
189.0593215455
 30
0.0
  0
VERTEX
  5
70A
  8
SK2
  6
CONTINUOUS
 62
     7
 10
21.5990763279
 20
189.0576811202
 30
0.0
  0
VERTEX
  5
70B
  8
SK2
  6
CONTINUOUS
 62
     7
 10
21.5884994821
 20
189.0561853054
 30
0.0
  0
VERTEX
  5
70C
  8
SK2
  6
CONTINUOUS
 62
     7
 10
21.5778366467
 20
189.0548172376
 30
0.0
  0
VERTEX
  5
70D
  8
SK2
  6
CONTINUOUS
 62
     7
 10
21.5669186871
 20
189.0535760464
 30
0.0
  0
VERTEX
  5
70E
  8
SK2
  6
CONTINUOUS
 62
     7
 10
21.5555630587
 20
189.0524626047
 30
0.0
  0
VERTEX
  5
70F
  8
SK2
  6
CONTINUOUS
 62
     7
 10
21.5435872166
 20
189.0514777855
 30
0.0
  0
VERTEX
  5
710
  8
SK2
  6
CONTINUOUS
 62
     7
 10
21.530808616
 20
189.0506224618
 30
0.0
  0
VERTEX
  5
711
  8
SK2
  6
CONTINUOUS
 62
     7
 10
21.5170447122
 20
189.0498975065
 30
0.0
  0
VERTEX
  5
712
  8
SK2
  6
CONTINUOUS
 62
     7
 10
21.5021129602
 20
189.0493037928
 30
0.0
  0
VERTEX
  5
713
  8
SK2
  6
CONTINUOUS
 62
     7
 10
21.4858308155
 20
189.0488421934
 30
0.0
  0
VERTEX
  5
714
  8
SK2
  6
CONTINUOUS
 62
     7
 10
21.468015733
 20
189.0485135815
 30
0.0
  0
VERTEX
  5
715
  8
SK2
  6
CONTINUOUS
 62
     7
 10
21.4484851682
 20
189.0483188299
 30
0.0
  0
VERTEX
  5
716
  8
SK2
  6
CONTINUOUS
 62
     7
 10
21.427056576
 20
189.0482588118
 30
0.0
  0
VERTEX
  5
717
  8
SK2
  6
CONTINUOUS
 62
     7
 10
21.4035474119
 20
189.0483344
 30
0.0
  0
VERTEX
  5
718
  8
SK2
  6
CONTINUOUS
 62
     7
 10
21.3777751309
 20
189.0485464676
 30
0.0
  0
SEQEND
  5
854
  8
SK2
  6
CONTINUOUS
 62
     7
  0
POLYLINE
  5
1FE
  8
SK2
  6
CONTINUOUS
 62
     7
 66
     1
 10
0.0
 20
0.0
 30
0.0
  0
VERTEX
  5
719
  8
SK2
  6
CONTINUOUS
 62
     7
 10
21.83213633
 20
190.4573794688
 30
0.0
  0
VERTEX
  5
71A
  8
SK2
  6
CONTINUOUS
 62
     7
 10
21.8159293799
 20
190.4814734278
 30
0.0
  0
VERTEX
  5
71B
  8
SK2
  6
CONTINUOUS
 62
     7
 10
21.7998595715
 20
190.5041054567
 30
0.0
  0
VERTEX
  5
71C
  8
SK2
  6
CONTINUOUS
 62
     7
 10
21.7834270534
 20
190.5252795908
 30
0.0
  0
VERTEX
  5
71D
  8
SK2
  6
CONTINUOUS
 62
     7
 10
21.7661319738
 20
190.5449998652
 30
0.0
  0
VERTEX
  5
71E
  8
SK2
  6
CONTINUOUS
 62
     7
 10
21.747474481
 20
190.5632703153
 30
0.0
  0
VERTEX
  5
71F
  8
SK2
  6
CONTINUOUS
 62
     7
 10
21.7270217869
 20
190.5800897519
 30
0.0
  0
VERTEX
  5
720
  8
SK2
  6
CONTINUOUS
 62
     7
 10
21.7048235479
 20
190.5954194032
 30
0.0
  0
VERTEX
  5
721
  8
SK2
  6
CONTINUOUS
 62
     7
 10
21.6811405953
 20
190.6092040468
 30
0.0
  0
VERTEX
  5
722
  8
SK2
  6
CONTINUOUS
 62
     7
 10
21.6562346526
 20
190.6213883909
 30
0.0
  0
VERTEX
  5
723
  8
SK2
  6
CONTINUOUS
 62
     7
 10
21.6303674437
 20
190.6319171434
 30
0.0
  0
VERTEX
  5
724
  8
SK2
  6
CONTINUOUS
 62
     7
 10
21.603800013
 20
190.6407354085
 30
0.0
  0
VERTEX
  5
725
  8
SK2
  6
CONTINUOUS
 62
     7
 10
21.5767369584
 20
190.6478212105
 30
0.0
  0
VERTEX
  5
726
  8
SK2
  6
CONTINUOUS
 62
     7
 10
21.5492849192
 20
190.6532097041
 30
0.0
  0
VERTEX
  5
727
  8
SK2
  6
CONTINUOUS
 62
     7
 10
21.5215407533
 20
190.6569417483
 30
0.0
  0
VERTEX
  5
728
  8
SK2
  6
CONTINUOUS
 62
     7
 10
21.4936013191
 20
190.6590582021
 30
0.0
  0
VERTEX
  5
729
  8
SK2
  6
CONTINUOUS
 62
     7
 10
21.4655634746
 20
190.6595999244
 30
0.0
  0
VERTEX
  5
72A
  8
SK2
  6
CONTINUOUS
 62
     7
 10
21.437524078
 20
190.6586077744
 30
0.0
  0
VERTEX
  5
72B
  8
SK2
  6
CONTINUOUS
 62
     7
 10
21.4095799875
 20
190.656122611
 30
0.0
  0
VERTEX
  5
72C
  8
SK2
  6
CONTINUOUS
 62
     7
 10
21.3818280613
 20
190.6521852931
 30
0.0
  0
VERTEX
  5
72D
  8
SK2
  6
CONTINUOUS
 62
     7
 10
21.3543651574
 20
190.6468366799
 30
0.0
  0
VERTEX
  5
72E
  8
SK2
  6
CONTINUOUS
 62
     7
 10
21.327288133
 20
190.6401176299
 30
0.0
  0
VERTEX
  5
72F
  8
SK2
  6
CONTINUOUS
 62
     7
 10
21.3006873069
 20
190.6320666059
 30
0.0
  0
VERTEX
  5
730
  8
SK2
  6
CONTINUOUS
 62
     7
 10
21.2746310627
 20
190.6227140327
 30
0.0
  0
VERTEX
  5
731
  8
SK2
  6
CONTINUOUS
 62
     7
 10
21.249183189
 20
190.6120886516
 30
0.0
  0
VERTEX
  5
732
  8
SK2
  6
CONTINUOUS
 62
     7
 10
21.2244074746
 20
190.6002192036
 30
0.0
  0
VERTEX
  5
733
  8
SK2
  6
CONTINUOUS
 62
     7
 10
21.2003677082
 20
190.58713443
 30
0.0
  0
VERTEX
  5
734
  8
SK2
  6
CONTINUOUS
 62
     7
 10
21.1771276783
 20
190.5728630718
 30
0.0
  0
VERTEX
  5
735
  8
SK2
  6
CONTINUOUS
 62
     7
 10
21.1547511738
 20
190.5574338703
 30
0.0
  0
VERTEX
  5
736
  8
SK2
  6
CONTINUOUS
 62
     7
 10
21.1333019832
 20
190.5408755665
 30
0.0
  0
VERTEX
  5
737
  8
SK2
  6
CONTINUOUS
 62
     7
 10
21.1128438952
 20
190.5232169016
 30
0.0
  0
VERTEX
  5
738
  8
SK2
  6
CONTINUOUS
 62
     7
 10
21.0934406986
 20
190.5044866168
 30
0.0
  0
VERTEX
  5
739
  8
SK2
  6
CONTINUOUS
 62
     7
 10
21.0751561493
 20
190.4847134676
 30
0.0
  0
VERTEX
  5
73A
  8
SK2
  6
CONTINUOUS
 62
     7
 10
21.0580302289
 20
190.4639366097
 30
0.0
  0
VERTEX
  5
73B
  8
SK2
  6
CONTINUOUS
 62
     7
 10
21.0420372008
 20
190.4422239486
 30
0.0
  0
VERTEX
  5
73C
  8
SK2
  6
CONTINUOUS
 62
     7
 10
21.0271400682
 20
190.4196483156
 30
0.0
  0
VERTEX
  5
73D
  8
SK2
  6
CONTINUOUS
 62
     7
 10
21.0133018341
 20
190.3962825421
 30
0.0
  0
VERTEX
  5
73E
  8
SK2
  6
CONTINUOUS
 62
     7
 10
21.0004855017
 20
190.3721994594
 30
0.0
  0
VERTEX
  5
73F
  8
SK2
  6
CONTINUOUS
 62
     7
 10
20.988654074
 20
190.3474718987
 30
0.0
  0
VERTEX
  5
740
  8
SK2
  6
CONTINUOUS
 62
     7
 10
20.9777705543
 20
190.3221726915
 30
0.0
  0
VERTEX
  5
741
  8
SK2
  6
CONTINUOUS
 62
     7
 10
20.9677979456
 20
190.296374669
 30
0.0
  0
VERTEX
  5
742
  8
SK2
  6
CONTINUOUS
 62
     7
 10
20.9586992509
 20
190.2701506627
 30
0.0
  0
VERTEX
  5
743
  8
SK2
  6
CONTINUOUS
 62
     7
 10
20.9504374736
 20
190.2435735037
 30
0.0
  0
VERTEX
  5
744
  8
SK2
  6
CONTINUOUS
 62
     7
 10
20.9429756166
 20
190.2167160235
 30
0.0
  0
VERTEX
  5
745
  8
SK2
  6
CONTINUOUS
 62
     7
 10
20.936276683
 20
190.1896510534
 30
0.0
  0
VERTEX
  5
746
  8
SK2
  6
CONTINUOUS
 62
     7
 10
20.9303036761
 20
190.1624514248
 30
0.0
  0
VERTEX
  5
747
  8
SK2
  6
CONTINUOUS
 62
     7
 10
20.9250195989
 20
190.1351899688
 30
0.0
  0
VERTEX
  5
748
  8
SK2
  6
CONTINUOUS
 62
     7
 10
20.9203903057
 20
190.1079357405
 30
0.0
  0
VERTEX
  5
749
  8
SK2
  6
CONTINUOUS
 62
     7
 10
20.9164139805
 20
190.0807149745
 30
0.0
  0
VERTEX
  5
74A
  8
SK2
  6
CONTINUOUS
 62
     7
 10
20.9131092839
 20
190.0535267841
 30
0.0
  0
VERTEX
  5
74B
  8
SK2
  6
CONTINUOUS
 62
     7
 10
20.9104952013
 20
190.0263698526
 30
0.0
  0
VERTEX
  5
74C
  8
SK2
  6
CONTINUOUS
 62
     7
 10
20.9085907178
 20
189.9992428633
 30
0.0
  0
VERTEX
  5
74D
  8
SK2
  6
CONTINUOUS
 62
     7
 10
20.9074148188
 20
189.9721444997
 30
0.0
  0
VERTEX
  5
74E
  8
SK2
  6
CONTINUOUS
 62
     7
 10
20.9069864896
 20
189.945073445
 30
0.0
  0
VERTEX
  5
74F
  8
SK2
  6
CONTINUOUS
 62
     7
 10
20.9073247154
 20
189.9180283828
 30
0.0
  0
VERTEX
  5
750
  8
SK2
  6
CONTINUOUS
 62
     7
 10
20.9084484815
 20
189.8910079962
 30
0.0
  0
VERTEX
  5
751
  8
SK2
  6
CONTINUOUS
 62
     7
 10
20.9103767732
 20
189.8640109688
 30
0.0
  0
VERTEX
  5
752
  8
SK2
  6
CONTINUOUS
 62
     7
 10
20.9131285758
 20
189.8370359838
 30
0.0
  0
VERTEX
  5
753
  8
SK2
  6
CONTINUOUS
 62
     7
 10
20.9167228744
 20
189.8100817247
 30
0.0
  0
VERTEX
  5
754
  8
SK2
  6
CONTINUOUS
 62
     7
 10
20.9211786544
 20
189.7831468747
 30
0.0
  0
VERTEX
  5
755
  8
SK2
  6
CONTINUOUS
 62
     7
 10
20.9265151427
 20
189.7562327866
 30
0.0
  0
VERTEX
  5
756
  8
SK2
  6
CONTINUOUS
 62
     7
 10
20.9327558912
 20
189.7293886214
 30
0.0
  0
VERTEX
  5
757
  8
SK2
  6
CONTINUOUS
 62
     7
 10
20.9399281883
 20
189.7027048347
 30
0.0
  0
VERTEX
  5
758
  8
SK2
  6
CONTINUOUS
 62
     7
 10
20.9480594449
 20
189.6762732393
 30
0.0
  0
VERTEX
  5
759
  8
SK2
  6
CONTINUOUS
 62
     7
 10
20.9571770721
 20
189.6501856485
 30
0.0
  0
VERTEX
  5
75A
  8
SK2
  6
CONTINUOUS
 62
     7
 10
20.9673084808
 20
189.6245338753
 30
0.0
  0
VERTEX
  5
75B
  8
SK2
  6
CONTINUOUS
 62
     7
 10
20.9784810822
 20
189.5994097326
 30
0.0
  0
VERTEX
  5
75C
  8
SK2
  6
CONTINUOUS
 62
     7
 10
20.9907222873
 20
189.5749050337
 30
0.0
  0
VERTEX
  5
75D
  8
SK2
  6
CONTINUOUS
 62
     7
 10
21.004059507
 20
189.5511115915
 30
0.0
  0
VERTEX
  5
75E
  8
SK2
  6
CONTINUOUS
 62
     7
 10
21.0185201524
 20
189.5281212191
 30
0.0
  0
VERTEX
  5
75F
  8
SK2
  6
CONTINUOUS
 62
     7
 10
21.0341316345
 20
189.5060257296
 30
0.0
  0
VERTEX
  5
760
  8
SK2
  6
CONTINUOUS
 62
     7
 10
21.0509213643
 20
189.4849169361
 30
0.0
  0
VERTEX
  5
761
  8
SK2
  6
CONTINUOUS
 62
     7
 10
21.0689153084
 20
189.464885513
 30
0.0
  0
VERTEX
  5
762
  8
SK2
  6
CONTINUOUS
 62
     7
 10
21.0880857637
 20
189.4459798354
 30
0.0
  0
VERTEX
  5
763
  8
SK2
  6
CONTINUOUS
 62
     7
 10
21.1083367143
 20
189.4281944369
 30
0.0
  0
VERTEX
  5
764
  8
SK2
  6
CONTINUOUS
 62
     7
 10
21.1295677169
 20
189.4115203624
 30
0.0
  0
VERTEX
  5
765
  8
SK2
  6
CONTINUOUS
 62
     7
 10
21.1516783287
 20
189.3959486564
 30
0.0
  0
VERTEX
  5
766
  8
SK2
  6
CONTINUOUS
 62
     7
 10
21.1745681067
 20
189.3814703637
 30
0.0
  0
VERTEX
  5
767
  8
SK2
  6
CONTINUOUS
 62
     7
 10
21.1981366077
 20
189.368076529
 30
0.0
  0
VERTEX
  5
768
  8
SK2
  6
CONTINUOUS
 62
     7
 10
21.2222833889
 20
189.3557581971
 30
0.0
  0
VERTEX
  5
769
  8
SK2
  6
CONTINUOUS
 62
     7
 10
21.2469080072
 20
189.3445064127
 30
0.0
  0
VERTEX
  5
76A
  8
SK2
  6
CONTINUOUS
 62
     7
 10
21.2719100197
 20
189.3343122204
 30
0.0
  0
VERTEX
  5
76B
  8
SK2
  6
CONTINUOUS
 62
     7
 10
21.2971889832
 20
189.325166665
 30
0.0
  0
VERTEX
  5
76C
  8
SK2
  6
CONTINUOUS
 62
     7
 10
21.3226541865
 20
189.3170671026
 30
0.0
  0
VERTEX
  5
76D
  8
SK2
  6
CONTINUOUS
 62
     7
 10
21.3482841797
 20
189.3100558089
 30
0.0
  0
VERTEX
  5
76E
  8
SK2
  6
CONTINUOUS
 62
     7
 10
21.3740875445
 20
189.3041945361
 30
0.0
  0
VERTEX
  5
76F
  8
SK2
  6
CONTINUOUS
 62
     7
 10
21.4000729838
 20
189.2995451155
 30
0.0
  0
VERTEX
  5
770
  8
SK2
  6
CONTINUOUS
 62
     7
 10
21.4262492006
 20
189.296169378
 30
0.0
  0
VERTEX
  5
771
  8
SK2
  6
CONTINUOUS
 62
     7
 10
21.452624898
 20
189.2941291548
 30
0.0
  0
VERTEX
  5
772
  8
SK2
  6
CONTINUOUS
 62
     7
 10
21.4792087787
 20
189.2934862769
 30
0.0
  0
VERTEX
  5
773
  8
SK2
  6
CONTINUOUS
 62
     7
 10
21.5060095458
 20
189.2943025754
 30
0.0
  0
VERTEX
  5
774
  8
SK2
  6
CONTINUOUS
 62
     7
 10
21.5330359024
 20
189.2966398815
 30
0.0
  0
VERTEX
  5
775
  8
SK2
  6
CONTINUOUS
 62
     7
 10
21.5602965512
 20
189.3005600261
 30
0.0
  0
VERTEX
  5
776
  8
SK2
  6
CONTINUOUS
 62
     7
 10
21.5877954007
 20
189.3061243561
 30
0.0
  0
VERTEX
  5
777
  8
SK2
  6
CONTINUOUS
 62
     7
 10
21.6153776877
 20
189.3133781933
 30
0.0
  0
VERTEX
  5
778
  8
SK2
  6
CONTINUOUS
 62
     7
 10
21.6426972686
 20
189.3223475307
 30
0.0
  0
VERTEX
  5
779
  8
SK2
  6
CONTINUOUS
 62
     7
 10
21.669396591
 20
189.3330572092
 30
0.0
  0
VERTEX
  5
77A
  8
SK2
  6
CONTINUOUS
 62
     7
 10
21.6951181029
 20
189.3455320698
 30
0.0
  0
VERTEX
  5
77B
  8
SK2
  6
CONTINUOUS
 62
     7
 10
21.7195042521
 20
189.3597969532
 30
0.0
  0
VERTEX
  5
77C
  8
SK2
  6
CONTINUOUS
 62
     7
 10
21.7421984174
 20
189.3758766501
 30
0.0
  0
VERTEX
  5
77D
  8
SK2
  6
CONTINUOUS
 62
     7
 10
21.7630237763
 20
189.3937862163
 30
0.0
  0
VERTEX
  5
77E
  8
SK2
  6
CONTINUOUS
 62
     7
 10
21.7821963459
 20
189.4135194387
 30
0.0
  0
VERTEX
  5
77F
  8
SK2
  6
CONTINUOUS
 62
     7
 10
21.7999840316
 20
189.4350672946
 30
0.0
  0
VERTEX
  5
780
  8
SK2
  6
CONTINUOUS
 62
     7
 10
21.816654739
 20
189.4584207618
 30
0.0
  0
VERTEX
  5
781
  8
SK2
  6
CONTINUOUS
 62
     7
 10
21.8324763735
 20
189.4835708176
 30
0.0
  0
SEQEND
  5
853
  8
SK2
  6
CONTINUOUS
 62
     7
  0
LINE
  5
1FF
  8
SK2
  6
CONTINUOUS
 62
     7
 10
21.83213633
 20
190.6245107529
 30
0.0
 11
21.83213633
 21
190.4573794688
 31
0.0
  0
LINE
  5
200
  8
SK2
  6
CONTINUOUS
 62
     7
 10
21.83213633
 20
190.6245107529
 30
0.0
 11
22.1704889118
 21
190.6245107529
 31
0.0
  0
LINE
  5
201
  8
SK2
  6
CONTINUOUS
 62
     7
 10
22.1704889118
 20
190.6245107529
 30
0.0
 11
22.1704889118
 21
189.2827975699
 31
0.0
  0
POLYLINE
  5
202
  8
SK2
  6
CONTINUOUS
 62
     7
 66
     1
 10
0.0
 20
0.0
 30
0.0
  0
VERTEX
  5
782
  8
SK2
  6
CONTINUOUS
 62
     7
 10
22.1704889118
 20
189.2827975699
 30
0.0
  0
VERTEX
  5
783
  8
SK2
  6
CONTINUOUS
 62
     7
 10
22.1694445557
 20
189.2620892662
 30
0.0
  0
VERTEX
  5
784
  8
SK2
  6
CONTINUOUS
 62
     7
 10
22.1682048089
 20
189.2420477142
 30
0.0
  0
VERTEX
  5
785
  8
SK2
  6
CONTINUOUS
 62
     7
 10
22.1666833637
 20
189.2225749715
 30
0.0
  0
VERTEX
  5
786
  8
SK2
  6
CONTINUOUS
 62
     7
 10
22.1647939119
 20
189.2035730957
 30
0.0
  0
VERTEX
  5
787
  8
SK2
  6
CONTINUOUS
 62
     7
 10
22.1624501456
 20
189.1849441447
 30
0.0
  0
VERTEX
  5
788
  8
SK2
  6
CONTINUOUS
 62
     7
 10
22.1595657571
 20
189.166590176
 30
0.0
  0
VERTEX
  5
789
  8
SK2
  6
CONTINUOUS
 62
     7
 10
22.1560544382
 20
189.1484132475
 30
0.0
  0
VERTEX
  5
78A
  8
SK2
  6
CONTINUOUS
 62
     7
 10
22.1518298811
 20
189.1303154167
 30
0.0
  0
VERTEX
  5
78B
  8
SK2
  6
CONTINUOUS
 62
     7
 10
22.146811094
 20
189.1122093074
 30
0.0
  0
VERTEX
  5
78C
  8
SK2
  6
CONTINUOUS
 62
     7
 10
22.1409708733
 20
189.0941144494
 30
0.0
  0
VERTEX
  5
78D
  8
SK2
  6
CONTINUOUS
 62
     7
 10
22.1343132565
 20
189.0761124652
 30
0.0
  0
VERTEX
  5
78E
  8
SK2
  6
CONTINUOUS
 62
     7
 10
22.1268426662
 20
189.0582857426
 30
0.0
  0
VERTEX
  5
78F
  8
SK2
  6
CONTINUOUS
 62
     7
 10
22.118563525
 20
189.04071667
 30
0.0
  0
VERTEX
  5
790
  8
SK2
  6
CONTINUOUS
 62
     7
 10
22.1094802556
 20
189.0234876352
 30
0.0
  0
VERTEX
  5
791
  8
SK2
  6
CONTINUOUS
 62
     7
 10
22.0995972806
 20
189.0066810263
 30
0.0
  0
VERTEX
  5
792
  8
SK2
  6
CONTINUOUS
 62
     7
 10
22.0889190226
 20
188.9903792313
 30
0.0
  0
VERTEX
  5
793
  8
SK2
  6
CONTINUOUS
 62
     7
 10
22.0774499044
 20
188.9746646384
 30
0.0
  0
VERTEX
  5
794
  8
SK2
  6
CONTINUOUS
 62
     7
 10
22.0651946015
 20
188.9596191579
 30
0.0
  0
VERTEX
  5
795
  8
SK2
  6
CONTINUOUS
 62
     7
 10
22.0521741017
 20
188.9452939111
 30
0.0
  0
VERTEX
  5
796
  8
SK2
  6
CONTINUOUS
 62
     7
 10
22.0384353489
 20
188.9316910261
 30
0.0
  0
VERTEX
  5
797
  8
SK2
  6
CONTINUOUS
 62
     7
 10
22.0240276003
 20
188.9188082652
 30
0.0
  0
VERTEX
  5
798
  8
SK2
  6
CONTINUOUS
 62
     7
 10
22.0090001129
 20
188.9066433901
 30
0.0
  0
VERTEX
  5
799
  8
SK2
  6
CONTINUOUS
 62
     7
 10
21.9934021439
 20
188.8951941631
 30
0.0
  0
VERTEX
  5
79A
  8
SK2
  6
CONTINUOUS
 62
     7
 10
21.9772829505
 20
188.8844583461
 30
0.0
  0
VERTEX
  5
79B
  8
SK2
  6
CONTINUOUS
 62
     7
 10
21.9606917899
 20
188.8744337011
 30
0.0
  0
VERTEX
  5
79C
  8
SK2
  6
CONTINUOUS
 62
     7
 10
21.9436779191
 20
188.8651179902
 30
0.0
  0
VERTEX
  5
79D
  8
SK2
  6
CONTINUOUS
 62
     7
 10
21.9262905954
 20
188.8565089752
 30
0.0
  0
VERTEX
  5
79E
  8
SK2
  6
CONTINUOUS
 62
     7
 10
21.9085790759
 20
188.8486044184
 30
0.0
  0
VERTEX
  5
79F
  8
SK2
  6
CONTINUOUS
 62
     7
 10
21.8905913912
 20
188.8413985563
 30
0.0
  0
VERTEX
  5
7A0
  8
SK2
  6
CONTINUOUS
 62
     7
 10
21.87236659
 20
188.8348598107
 30
0.0
  0
VERTEX
  5
7A1
  8
SK2
  6
CONTINUOUS
 62
     7
 10
21.853939728
 20
188.8289451263
 30
0.0
  0
VERTEX
  5
7A2
  8
SK2
  6
CONTINUOUS
 62
     7
 10
21.8353458424
 20
188.8236113954
 30
0.0
  0
VERTEX
  5
7A3
  8
SK2
  6
CONTINUOUS
 62
     7
 10
21.8166199705
 20
188.8188155104
 30
0.0
  0
VERTEX
  5
7A4
  8
SK2
  6
CONTINUOUS
 62
     7
 10
21.7977971498
 20
188.8145143637
 30
0.0
  0
VERTEX
  5
7A5
  8
SK2
  6
CONTINUOUS
 62
     7
 10
21.7789124175
 20
188.8106648476
 30
0.0
  0
VERTEX
  5
7A6
  8
SK2
  6
CONTINUOUS
 62
     7
 10
21.7600008111
 20
188.8072238545
 30
0.0
  0
VERTEX
  5
7A7
  8
SK2
  6
CONTINUOUS
 62
     7
 10
21.7410973678
 20
188.8041482768
 30
0.0
  0
VERTEX
  5
7A8
  8
SK2
  6
CONTINUOUS
 62
     7
 10
21.722237125
 20
188.801395007
 30
0.0
  0
VERTEX
  5
7A9
  8
SK2
  6
CONTINUOUS
 62
     7
 10
21.7034551201
 20
188.7989209373
 30
0.0
  0
VERTEX
  5
7AA
  8
SK2
  6
CONTINUOUS
 62
     7
 10
21.6847811092
 20
188.7966857483
 30
0.0
  0
VERTEX
  5
7AB
  8
SK2
  6
CONTINUOUS
 62
     7
 10
21.6662034019
 20
188.7946710031
 30
0.0
  0
VERTEX
  5
7AC
  8
SK2
  6
CONTINUOUS
 62
     7
 10
21.6476907418
 20
188.7928685944
 30
0.0
  0
VERTEX
  5
7AD
  8
SK2
  6
CONTINUOUS
 62
     7
 10
21.6292117568
 20
188.7912704763
 30
0.0
  0
VERTEX
  5
7AE
  8
SK2
  6
CONTINUOUS
 62
     7
 10
21.6107350749
 20
188.7898686026
 30
0.0
  0
VERTEX
  5
7AF
  8
SK2
  6
CONTINUOUS
 62
     7
 10
21.5922293242
 20
188.7886549273
 30
0.0
  0
VERTEX
  5
7B0
  8
SK2
  6
CONTINUOUS
 62
     7
 10
21.5736631327
 20
188.7876214043
 30
0.0
  0
VERTEX
  5
7B1
  8
SK2
  6
CONTINUOUS
 62
     7
 10
21.5550051283
 20
188.7867599877
 30
0.0
  0
VERTEX
  5
7B2
  8
SK2
  6
CONTINUOUS
 62
     7
 10
21.536223939
 20
188.7860626313
 30
0.0
  0
VERTEX
  5
7B3
  8
SK2
  6
CONTINUOUS
 62
     7
 10
21.517288193
 20
188.785521289
 30
0.0
  0
VERTEX
  5
7B4
  8
SK2
  6
CONTINUOUS
 62
     7
 10
21.498166518
 20
188.7851279149
 30
0.0
  0
VERTEX
  5
7B5
  8
SK2
  6
CONTINUOUS
 62
     7
 10
21.4788275423
 20
188.7848744628
 30
0.0
  0
VERTEX
  5
7B6
  8
SK2
  6
CONTINUOUS
 62
     7
 10
21.4592398937
 20
188.7847528867
 30
0.0
  0
VERTEX
  5
7B7
  8
SK2
  6
CONTINUOUS
 62
     7
 10
21.4393722002
 20
188.7847551405
 30
0.0
  0
VERTEX
  5
7B8
  8
SK2
  6
CONTINUOUS
 62
     7
 10
21.4191930899
 20
188.7848731783
 30
0.0
  0
VERTEX
  5
7B9
  8
SK2
  6
CONTINUOUS
 62
     7
 10
21.3986711908
 20
188.7850989538
 30
0.0
  0
VERTEX
  5
7BA
  8
SK2
  6
CONTINUOUS
 62
     7
 10
21.3777751309
 20
188.7854244211
 30
0.0
  0
SEQEND
  5
852
  8
SK2
  6
CONTINUOUS
 62
     7
  0
LINE
  5
203
  8
SK2
  6
CONTINUOUS
 62
     7
 10
21.8869768793
 20
188.5910856771
 30
0.0
 11
22.3152557597
 21
187.957205646
 31
0.0
  0
LINE
  5
204
  8
SK2
  6
CONTINUOUS
 62
     7
 10
22.3232106427
 20
188.5910856771
 30
0.0
 11
21.8869768793
 21
188.5910856771
 31
0.0
  0
LINE
  5
205
  8
SK2
  6
CONTINUOUS
 62
     7
 10
22.527227132
 20
188.2372736931
 30
0.0
 11
22.3232106427
 21
188.5910856771
 31
0.0
  0
LINE
  5
206
  8
SK2
  6
CONTINUOUS
 62
     7
 10
22.7246387709
 20
188.5910856771
 30
0.0
 11
22.527227132
 21
188.2372736931
 31
0.0
  0
LINE
  5
207
  8
SK2
  6
CONTINUOUS
 62
     7
 10
23.1623590928
 20
188.5910856771
 30
0.0
 11
22.7246387709
 21
188.5910856771
 31
0.0
  0
LINE
  5
208
  8
SK2
  6
CONTINUOUS
 62
     7
 10
22.7258801704
 20
187.957205646
 30
0.0
 11
23.1623590928
 21
188.5910856771
 31
0.0
  0
LINE
  5
209
  8
SK2
  6
CONTINUOUS
 62
     7
 10
23.1915969154
 20
187.2800436062
 30
0.0
 11
22.7258801704
 21
187.957205646
 31
0.0
  0
LINE
  5
20A
  8
SK2
  6
CONTINUOUS
 62
     7
 10
22.7425874976
 20
187.2800436062
 30
0.0
 11
23.1915969154
 21
187.2800436062
 31
0.0
  0
LINE
  5
20B
  8
SK2
  6
CONTINUOUS
 62
     7
 10
22.5128617489
 20
187.6648274204
 30
0.0
 11
22.7425874976
 21
187.2800436062
 31
0.0
  0
LINE
  5
20C
  8
SK2
  6
CONTINUOUS
 62
     7
 10
22.2935780798
 20
187.2800436062
 30
0.0
 11
22.5128617489
 21
187.6648274204
 31
0.0
  0
LINE
  5
20D
  8
SK2
  6
CONTINUOUS
 62
     7
 10
21.863364405
 20
187.2800436062
 30
0.0
 11
22.2935780798
 21
187.2800436062
 31
0.0
  0
LINE
  5
20E
  8
SK2
  6
CONTINUOUS
 62
     7
 10
22.3152557597
 20
187.957205646
 30
0.0
 11
21.863364405
 21
187.2800436062
 31
0.0
  0
POLYLINE
  5
20F
  8
SK2
  6
CONTINUOUS
 62
     7
 66
     1
 10
0.0
 20
0.0
 30
0.0
  0
VERTEX
  5
7BB
  8
SK2
  6
CONTINUOUS
 62
     7
 10
22.9487917259
 20
190.6715414095
 30
0.0
  0
VERTEX
  5
7BC
  8
SK2
  6
CONTINUOUS
 62
     7
 10
22.794572907
 20
190.6530614559
 30
0.0
  0
VERTEX
  5
7BD
  8
SK2
  6
CONTINUOUS
 62
     7
 10
22.6332362964
 20
190.5905139209
 30
0.0
  0
VERTEX
  5
7BE
  8
SK2
  6
CONTINUOUS
 62
     7
 10
22.4823584817
 20
190.4780676102
 30
0.0
  0
VERTEX
  5
7BF
  8
SK2
  6
CONTINUOUS
 62
     7
 10
22.4174160027
 20
190.404108714
 30
0.0
  0
VERTEX
  5
7C0
  8
SK2
  6
CONTINUOUS
 62
     7
 10
22.362760214
 20
190.3204222923
 30
0.0
  0
VERTEX
  5
7C1
  8
SK2
  6
CONTINUOUS
 62
     7
 10
22.3202501561
 20
190.2294587904
 30
0.0
  0
VERTEX
  5
7C2
  8
SK2
  6
CONTINUOUS
 62
     7
 10
22.2910012533
 20
190.1341141893
 30
0.0
  0
VERTEX
  5
7C3
  8
SK2
  6
CONTINUOUS
 62
     7
 10
22.2752928241
 20
190.037430765
 30
0.0
  0
VERTEX
  5
7C4
  8
SK2
  6
CONTINUOUS
 62
     7
 10
22.2726015198
 20
189.9422940122
 30
0.0
  0
VERTEX
  5
7C5
  8
SK2
  6
CONTINUOUS
 62
     7
 10
22.3010726864
 20
189.7660236861
 30
0.0
  0
VERTEX
  5
7C6
  8
SK2
  6
CONTINUOUS
 62
     7
 10
22.362760214
 20
189.6181840578
 30
0.0
  0
VERTEX
  5
7C7
  8
SK2
  6
CONTINUOUS
 62
     7
 10
22.4552915053
 20
189.4888243831
 30
0.0
  0
VERTEX
  5
7C8
  8
SK2
  6
CONTINUOUS
 62
     7
 10
22.5881569493
 20
189.3751015921
 30
0.0
  0
VERTEX
  5
7C9
  8
SK2
  6
CONTINUOUS
 62
     7
 10
22.7574344975
 20
189.2957277257
 30
0.0
  0
VERTEX
  5
7CA
  8
SK2
  6
CONTINUOUS
 62
     7
 10
22.8516258794
 20
189.2743420208
 30
0.0
  0
VERTEX
  5
7CB
  8
SK2
  6
CONTINUOUS
 62
     7
 10
22.9487917259
 20
189.2670649406
 30
0.0
  0
VERTEX
  5
7CC
  8
SK2
  6
CONTINUOUS
 62
     7
 10
23.0459575725
 20
189.2743420208
 30
0.0
  0
VERTEX
  5
7CD
  8
SK2
  6
CONTINUOUS
 62
     7
 10
23.1401489543
 20
189.2957277257
 30
0.0
  0
VERTEX
  5
7CE
  8
SK2
  6
CONTINUOUS
 62
     7
 10
23.2286873734
 20
189.3299519467
 30
0.0
  0
VERTEX
  5
7CF
  8
SK2
  6
CONTINUOUS
 62
     7
 10
23.3094265025
 20
189.3751015921
 30
0.0
  0
VERTEX
  5
7D0
  8
SK2
  6
CONTINUOUS
 62
     7
 10
23.4422919465
 20
189.4888243831
 30
0.0
  0
VERTEX
  5
7D1
  8
SK2
  6
CONTINUOUS
 62
     7
 10
23.5348232379
 20
189.6181840578
 30
0.0
  0
VERTEX
  5
7D2
  8
SK2
  6
CONTINUOUS
 62
     7
 10
23.5965107654
 20
189.7660236861
 30
0.0
  0
VERTEX
  5
7D3
  8
SK2
  6
CONTINUOUS
 62
     7
 10
23.624981932
 20
189.9422940122
 30
0.0
  0
VERTEX
  5
7D4
  8
SK2
  6
CONTINUOUS
 62
     7
 10
23.6065821985
 20
190.1341141893
 30
0.0
  0
VERTEX
  5
7D5
  8
SK2
  6
CONTINUOUS
 62
     7
 10
23.5773332957
 20
190.2294587904
 30
0.0
  0
VERTEX
  5
7D6
  8
SK2
  6
CONTINUOUS
 62
     7
 10
23.5348232379
 20
190.3204222923
 30
0.0
  0
VERTEX
  5
7D7
  8
SK2
  6
CONTINUOUS
 62
     7
 10
23.4801674492
 20
190.404108714
 30
0.0
  0
VERTEX
  5
7D8
  8
SK2
  6
CONTINUOUS
 62
     7
 10
23.4152249701
 20
190.4780676102
 30
0.0
  0
VERTEX
  5
7D9
  8
SK2
  6
CONTINUOUS
 62
     7
 10
23.3423949802
 20
190.5405268135
 30
0.0
  0
VERTEX
  5
7DA
  8
SK2
  6
CONTINUOUS
 62
     7
 10
23.2643471554
 20
190.5905139209
 30
0.0
  0
VERTEX
  5
7DB
  8
SK2
  6
CONTINUOUS
 62
     7
 10
23.1030105449
 20
190.6530614559
 30
0.0
  0
VERTEX
  5
7DC
  8
SK2
  6
CONTINUOUS
 62
     7
 10
22.9487917259
 20
190.6715414095
 30
0.0
  0
SEQEND
  5
851
  8
SK2
  6
CONTINUOUS
 62
     7
  0
POLYLINE
  5
210
  8
SK2
  6
CONTINUOUS
 62
     7
 66
     1
 10
0.0
 20
0.0
 30
0.0
  0
VERTEX
  5
7DD
  8
SK2
  6
CONTINUOUS
 62
     7
 10
19.9040612979
 20
190.0939938126
 30
0.0
  0
VERTEX
  5
7DE
  8
SK2
  6
CONTINUOUS
 62
     7
 10
19.9066295802
 20
190.1095762388
 30
0.0
  0
VERTEX
  5
7DF
  8
SK2
  6
CONTINUOUS
 62
     7
 10
19.9093480056
 20
190.1248416987
 30
0.0
  0
VERTEX
  5
7E0
  8
SK2
  6
CONTINUOUS
 62
     7
 10
19.9122841555
 20
190.1397825878
 30
0.0
  0
VERTEX
  5
7E1
  8
SK2
  6
CONTINUOUS
 62
     7
 10
19.9155056115
 20
190.1543913015
 30
0.0
  0
VERTEX
  5
7E2
  8
SK2
  6
CONTINUOUS
 62
     7
 10
19.9190799551
 20
190.1686602354
 30
0.0
  0
VERTEX
  5
7E3
  8
SK2
  6
CONTINUOUS
 62
     7
 10
19.9230747677
 20
190.1825817849
 30
0.0
  0
VERTEX
  5
7E4
  8
SK2
  6
CONTINUOUS
 62
     7
 10
19.9275576309
 20
190.1961483457
 30
0.0
  0
VERTEX
  5
7E5
  8
SK2
  6
CONTINUOUS
 62
     7
 10
19.9325961263
 20
190.2093523131
 30
0.0
  0
VERTEX
  5
7E6
  8
SK2
  6
CONTINUOUS
 62
     7
 10
19.9382578353
 20
190.2221860828
 30
0.0
  0
VERTEX
  5
7E7
  8
SK2
  6
CONTINUOUS
 62
     7
 10
19.9446103394
 20
190.2346420501
 30
0.0
  0
VERTEX
  5
7E8
  8
SK2
  6
CONTINUOUS
 62
     7
 10
19.9517212203
 20
190.2467126107
 30
0.0
  0
VERTEX
  5
7E9
  8
SK2
  6
CONTINUOUS
 62
     7
 10
19.9596571438
 20
190.25838991
 30
0.0
  0
VERTEX
  5
7EA
  8
SK2
  6
CONTINUOUS
 62
     7
 10
19.9684362781
 20
190.2696528544
 30
0.0
  0
VERTEX
  5
7EB
  8
SK2
  6
CONTINUOUS
 62
     7
 10
19.9780050997
 20
190.2804607788
 30
0.0
  0
VERTEX
  5
7EC
  8
SK2
  6
CONTINUOUS
 62
     7
 10
19.9883043075
 20
190.2907714413
 30
0.0
  0
VERTEX
  5
7ED
  8
SK2
  6
CONTINUOUS
 62
     7
 10
19.9992746007
 20
190.3005425998
 30
0.0
  0
VERTEX
  5
7EE
  8
SK2
  6
CONTINUOUS
 62
     7
 10
20.0108566783
 20
190.3097320121
 30
0.0
  0
VERTEX
  5
7EF
  8
SK2
  6
CONTINUOUS
 62
     7
 10
20.0229912393
 20
190.3182974364
 30
0.0
  0
VERTEX
  5
7F0
  8
SK2
  6
CONTINUOUS
 62
     7
 10
20.0356189828
 20
190.3261966305
 30
0.0
  0
VERTEX
  5
7F1
  8
SK2
  6
CONTINUOUS
 62
     7
 10
20.0486806079
 20
190.3333873523
 30
0.0
  0
VERTEX
  5
7F2
  8
SK2
  6
CONTINUOUS
 62
     7
 10
20.0621168135
 20
190.3398273599
 30
0.0
  0
VERTEX
  5
7F3
  8
SK2
  6
CONTINUOUS
 62
     7
 10
20.0758682992
 20
190.3454744119
 30
0.0
  0
VERTEX
  5
7F4
  8
SK2
  6
CONTINUOUS
 62
     7
 10
20.0898794061
 20
190.350293689
 30
0.0
  0
VERTEX
  5
7F5
  8
SK2
  6
CONTINUOUS
 62
     7
 10
20.1041070913
 20
190.3542760823
 30
0.0
  0
VERTEX
  5
7F6
  8
SK2
  6
CONTINUOUS
 62
     7
 10
20.1185110414
 20
190.3574180462
 30
0.0
  0
VERTEX
  5
7F7
  8
SK2
  6
CONTINUOUS
 62
     7
 10
20.133050943
 20
190.3597160351
 30
0.0
  0
VERTEX
  5
7F8
  8
SK2
  6
CONTINUOUS
 62
     7
 10
20.1476864829
 20
190.3611665031
 30
0.0
  0
VERTEX
  5
7F9
  8
SK2
  6
CONTINUOUS
 62
     7
 10
20.1623773478
 20
190.3617659047
 30
0.0
  0
VERTEX
  5
7FA
  8
SK2
  6
CONTINUOUS
 62
     7
 10
20.1770832243
 20
190.3615106942
 30
0.0
  0
VERTEX
  5
7FB
  8
SK2
  6
CONTINUOUS
 62
     7
 10
20.1917637991
 20
190.360397326
 30
0.0
  0
VERTEX
  5
7FC
  8
SK2
  6
CONTINUOUS
 62
     7
 10
20.206378759
 20
190.3584222543
 30
0.0
  0
VERTEX
  5
7FD
  8
SK2
  6
CONTINUOUS
 62
     7
 10
20.2208877905
 20
190.3555819334
 30
0.0
  0
VERTEX
  5
7FE
  8
SK2
  6
CONTINUOUS
 62
     7
 10
20.2352505805
 20
190.3518728178
 30
0.0
  0
VERTEX
  5
7FF
  8
SK2
  6
CONTINUOUS
 62
     7
 10
20.2494247478
 20
190.3472940719
 30
0.0
  0
VERTEX
  5
800
  8
SK2
  6
CONTINUOUS
 62
     7
 10
20.2633487813
 20
190.341869934
 30
0.0
  0
VERTEX
  5
801
  8
SK2
  6
CONTINUOUS
 62
     7
 10
20.2769508173
 20
190.3356382109
 30
0.0
  0
VERTEX
  5
802
  8
SK2
  6
CONTINUOUS
 62
     7
 10
20.2901588908
 20
190.3286368428
 30
0.0
  0
VERTEX
  5
803
  8
SK2
  6
CONTINUOUS
 62
     7
 10
20.3029010367
 20
190.3209037698
 30
0.0
  0
VERTEX
  5
804
  8
SK2
  6
CONTINUOUS
 62
     7
 10
20.3151052896
 20
190.312476932
 30
0.0
  0
VERTEX
  5
805
  8
SK2
  6
CONTINUOUS
 62
     7
 10
20.3266996846
 20
190.3033942696
 30
0.0
  0
VERTEX
  5
806
  8
SK2
  6
CONTINUOUS
 62
     7
 10
20.3376122563
 20
190.2936937228
 30
0.0
  0
VERTEX
  5
807
  8
SK2
  6
CONTINUOUS
 62
     7
 10
20.3477710397
 20
190.2834132315
 30
0.0
  0
VERTEX
  5
808
  8
SK2
  6
CONTINUOUS
 62
     7
 10
20.3571040696
 20
190.2725907361
 30
0.0
  0
VERTEX
  5
809
  8
SK2
  6
CONTINUOUS
 62
     7
 10
20.3655418651
 20
190.2612638498
 30
0.0
  0
VERTEX
  5
80A
  8
SK2
  6
CONTINUOUS
 62
     7
 10
20.3730787253
 20
190.2494617954
 30
0.0
  0
VERTEX
  5
80B
  8
SK2
  6
CONTINUOUS
 62
     7
 10
20.3797766533
 20
190.2372048887
 30
0.0
  0
VERTEX
  5
80C
  8
SK2
  6
CONTINUOUS
 62
     7
 10
20.3857009217
 20
190.2245130154
 30
0.0
  0
VERTEX
  5
80D
  8
SK2
  6
CONTINUOUS
 62
     7
 10
20.3909168034
 20
190.2114060615
 30
0.0
  0
VERTEX
  5
80E
  8
SK2
  6
CONTINUOUS
 62
     7
 10
20.3954895712
 20
190.1979039125
 30
0.0
  0
VERTEX
  5
80F
  8
SK2
  6
CONTINUOUS
 62
     7
 10
20.3994844978
 20
190.1840264543
 30
0.0
  0
VERTEX
  5
810
  8
SK2
  6
CONTINUOUS
 62
     7
 10
20.4029668562
 20
190.1697935725
 30
0.0
  0
VERTEX
  5
811
  8
SK2
  6
CONTINUOUS
 62
     7
 10
20.406001919
 20
190.155225153
 30
0.0
  0
VERTEX
  5
812
  8
SK2
  6
CONTINUOUS
 62
     7
 10
20.4086549591
 20
190.1403410816
 30
0.0
  0
VERTEX
  5
813
  8
SK2
  6
CONTINUOUS
 62
     7
 10
20.4109912492
 20
190.1251612438
 30
0.0
  0
VERTEX
  5
814
  8
SK2
  6
CONTINUOUS
 62
     7
 10
20.4130760622
 20
190.1097055256
 30
0.0
  0
VERTEX
  5
815
  8
SK2
  6
CONTINUOUS
 62
     7
 10
20.4149746709
 20
190.0939938126
 30
0.0
  0
SEQEND
  5
850
  8
SK2
  6
CONTINUOUS
 62
     7
  0
LINE
  5
211
  8
SK2
  6
CONTINUOUS
 62
     7
 10
19.9040612979
 20
190.0939938126
 30
0.0
 11
20.4149746709
 21
190.0939938126
 31
0.0
  0
POLYLINE
  5
212
  8
SK2
  6
CONTINUOUS
 62
     7
 66
     1
 10
0.0
 20
0.0
 30
0.0
  0
VERTEX
  5
816
  8
SK2
  6
CONTINUOUS
 62
     7
 10
21.5541704031
 20
189.5982580253
 30
0.0
  0
VERTEX
  5
817
  8
SK2
  6
CONTINUOUS
 62
     7
 10
21.4894658788
 20
189.608014568
 30
0.0
  0
VERTEX
  5
818
  8
SK2
  6
CONTINUOUS
 62
     7
 10
21.4217749919
 20
189.6410367128
 30
0.0
  0
VERTEX
  5
819
  8
SK2
  6
CONTINUOUS
 62
     7
 10
21.3584722297
 20
189.7004030547
 30
0.0
  0
VERTEX
  5
81A
  8
SK2
  6
CONTINUOUS
 62
     7
 10
21.3082932108
 20
189.783632338
 30
0.0
  0
VERTEX
  5
81B
  8
SK2
  6
CONTINUOUS
 62
     7
 10
21.2781857995
 20
189.8819942183
 30
0.0
  0
VERTEX
  5
81C
  8
SK2
  6
CONTINUOUS
 62
     7
 10
21.2704659505
 20
189.9832662133
 30
0.0
  0
VERTEX
  5
81D
  8
SK2
  6
CONTINUOUS
 62
     7
 10
21.2824114011
 20
190.0763286213
 30
0.0
  0
VERTEX
  5
81E
  8
SK2
  6
CONTINUOUS
 62
     7
 10
21.3082932108
 20
190.1543809636
 30
0.0
  0
VERTEX
  5
81F
  8
SK2
  6
CONTINUOUS
 62
     7
 10
21.3471159254
 20
190.222676763
 30
0.0
  0
VERTEX
  5
820
  8
SK2
  6
CONTINUOUS
 62
     7
 10
21.4028613617
 20
190.2827170262
 30
0.0
  0
VERTEX
  5
821
  8
SK2
  6
CONTINUOUS
 62
     7
 10
21.473883973
 20
190.3246226794
 30
0.0
  0
VERTEX
  5
822
  8
SK2
  6
CONTINUOUS
 62
     7
 10
21.5541704031
 20
190.3397552763
 30
0.0
  0
VERTEX
  5
823
  8
SK2
  6
CONTINUOUS
 62
     7
 10
21.6344568333
 20
190.3246226794
 30
0.0
  0
VERTEX
  5
824
  8
SK2
  6
CONTINUOUS
 62
     7
 10
21.7054794446
 20
190.2827170262
 30
0.0
  0
VERTEX
  5
825
  8
SK2
  6
CONTINUOUS
 62
     7
 10
21.7612248809
 20
190.222676763
 30
0.0
  0
VERTEX
  5
826
  8
SK2
  6
CONTINUOUS
 62
     7
 10
21.8000475954
 20
190.1543809636
 30
0.0
  0
VERTEX
  5
827
  8
SK2
  6
CONTINUOUS
 62
     7
 10
21.8259294052
 20
190.0763286213
 30
0.0
  0
VERTEX
  5
828
  8
SK2
  6
CONTINUOUS
 62
     7
 10
21.8378748558
 20
189.9832662133
 30
0.0
  0
VERTEX
  5
829
  8
SK2
  6
CONTINUOUS
 62
     7
 10
21.8301550067
 20
189.8819942183
 30
0.0
  0
VERTEX
  5
82A
  8
SK2
  6
CONTINUOUS
 62
     7
 10
21.8000475954
 20
189.783632338
 30
0.0
  0
VERTEX
  5
82B
  8
SK2
  6
CONTINUOUS
 62
     7
 10
21.7498685766
 20
189.7004030547
 30
0.0
  0
VERTEX
  5
82C
  8
SK2
  6
CONTINUOUS
 62
     7
 10
21.6865658144
 20
189.6410367128
 30
0.0
  0
VERTEX
  5
82D
  8
SK2
  6
CONTINUOUS
 62
     7
 10
21.6188749274
 20
189.608014568
 30
0.0
  0
VERTEX
  5
82E
  8
SK2
  6
CONTINUOUS
 62
     7
 10
21.5541704031
 20
189.5982580253
 30
0.0
  0
SEQEND
  5
84F
  8
SK2
  6
CONTINUOUS
 62
     7
  0
POLYLINE
  5
213
  8
SK2
  6
CONTINUOUS
 62
     7
 66
     1
 10
0.0
 20
0.0
 30
0.0
  0
VERTEX
  5
82F
  8
SK2
  6
CONTINUOUS
 62
     7
 10
22.9387081918
 20
189.5713122678
 30
0.0
  0
VERTEX
  5
830
  8
SK2
  6
CONTINUOUS
 62
     7
 10
22.8702031957
 20
189.5835280847
 30
0.0
  0
VERTEX
  5
831
  8
SK2
  6
CONTINUOUS
 62
     7
 10
22.7991569557
 20
189.6207994566
 30
0.0
  0
VERTEX
  5
832
  8
SK2
  6
CONTINUOUS
 62
     7
 10
22.7334910797
 20
189.6862326101
 30
0.0
  0
VERTEX
  5
833
  8
SK2
  6
CONTINUOUS
 62
     7
 10
22.6824226203
 20
189.7769287348
 30
0.0
  0
VERTEX
  5
834
  8
SK2
  6
CONTINUOUS
 62
     7
 10
22.6530985778
 20
189.8833288956
 30
0.0
  0
VERTEX
  5
835
  8
SK2
  6
CONTINUOUS
 62
     7
 10
22.6476480097
 20
189.9922501485
 30
0.0
  0
VERTEX
  5
836
  8
SK2
  6
CONTINUOUS
 62
     7
 10
22.6628751643
 20
190.0918290315
 30
0.0
  0
VERTEX
  5
837
  8
SK2
  6
CONTINUOUS
 62
     7
 10
22.6925061545
 20
190.1749196421
 30
0.0
  0
VERTEX
  5
838
  8
SK2
  6
CONTINUOUS
 62
     7
 10
22.735625859
 20
190.2471883335
 30
0.0
  0
VERTEX
  5
839
  8
SK2
  6
CONTINUOUS
 62
     7
 10
22.7965071235
 20
190.3101391818
 30
0.0
  0
VERTEX
  5
83A
  8
SK2
  6
CONTINUOUS
 62
     7
 10
22.8731323114
 20
190.3532115191
 30
0.0
  0
VERTEX
  5
83B
  8
SK2
  6
CONTINUOUS
 62
     7
 10
22.9588752601
 20
190.3672940823
 30
0.0
  0
VERTEX
  5
83C
  8
SK2
  6
CONTINUOUS
 62
     7
 10
23.0437950631
 20
190.3488875919
 30
0.0
  0
VERTEX
  5
83D
  8
SK2
  6
CONTINUOUS
 62
     7
 10
23.1181407708
 20
190.3019902422
 30
0.0
  0
VERTEX
  5
83E
  8
SK2
  6
CONTINUOUS
 62
     7
 10
23.1757561133
 20
190.2360371529
 30
0.0
  0
VERTEX
  5
83F
  8
SK2
  6
CONTINUOUS
 62
     7
 10
23.2151608315
 20
190.1616776153
 30
0.0
  0
VERTEX
  5
840
  8
SK2
  6
CONTINUOUS
 62
     7
 10
23.2405461231
 20
190.077193107
 30
0.0
  0
VERTEX
  5
841
  8
SK2
  6
CONTINUOUS
 62
     7
 10
23.2507110986
 20
189.9769708867
 30
0.0
  0
VERTEX
  5
842
  8
SK2
  6
CONTINUOUS
 62
     7
 10
23.2397517866
 20
189.868465396
 30
0.0
  0
VERTEX
  5
843
  8
SK2
  6
CONTINUOUS
 62
     7
 10
23.2050772973
 20
189.763686708
 30
0.0
  0
VERTEX
  5
844
  8
SK2
  6
CONTINUOUS
 62
     7
 10
23.1494815369
 20
189.6756930376
 30
0.0
  0
VERTEX
  5
845
  8
SK2
  6
CONTINUOUS
 62
     7
 10
23.0805863972
 20
189.6136691344
 30
0.0
  0
VERTEX
  5
846
  8
SK2
  6
CONTINUOUS
 62
     7
 10
23.0077439002
 20
189.5800433407
 30
0.0
  0
VERTEX
  5
847
  8
SK2
  6
CONTINUOUS
 62
     7
 10
22.9387081918
 20
189.5713122678
 30
0.0
  0
SEQEND
  5
84E
  8
SK2
  6
CONTINUOUS
 62
     7
  0
INSERT
  5
214
  8
SK2
  2
SEANNOT_GROUP2
 10
0.0
 20
0.0
 30
0.0
  0
INSERT
  5
215
  8
SK2
  2
SEANNOT_GROUP3
 10
0.0
 20
0.0
 30
0.0
  0
POINT
  5
216
  8
SK2
  6
CONTINUOUS
 62
     7
 10
0.0
 20
0.0
 30
0.0
  0
ENDBLK
  5
218
  8
0
  0
BLOCK
  8
0
  2
*X16
 70
     1
 10
0.0
 20
0.0
 30
0.0
  3
*X16
  1

  0
TEXT
  5
310
  8
SK2
  6
CONTINUOUS
 62
     7
 10
15.0256856049
 20
32.4463084294
 30
0.0
 40
2.5
  1
REGO-FIX AG
  0
TEXT
  5
311
  8
SK2
  6
CONTINUOUS
 62
     7
 10
15.0281856049
 20
28.2646417627
 30
0.0
 40
2.5
  1
Obermattweg 60
  0
TEXT
  5
312
  8
SK2
  6
CONTINUOUS
 62
     7
 10
15.0981856049
 20
24.0854750961
 30
0.0
 40
2.5
  1
4456 Tenniken / Switzerland
  0
TEXT
  5
313
  8
SK2
  6
CONTINUOUS
 62
     7
 10
15.0331856049
 20
15.7396417627
 30
0.0
 40
2.5
  1
Phone  +41 61 976 14 66
  0
TEXT
  5
314
  8
SK2
  6
CONTINUOUS
 62
     7
 10
15.0281856049
 20
11.5604750961
 30
0.0
 40
2.5
  1
Fax     +41 61 976 14 14
  0
TEXT
  5
315
  8
SK2
  6
CONTINUOUS
 62
     7
 10
15.1806856049
 20
7.3938084294
 30
0.0
 40
2.5
  1
www.rego-fix.com
  0
ENDBLK
  5
849
  8
0
  0
BLOCK
  8
0
  2
*X17
 70
     1
 10
0.0
 20
0.0
 30
0.0
  3
*X17
  1

  0
TEXT
  5
317
  8
SK2
  6
CONTINUOUS
 62
     7
 10
90.3314341545
 20
32.7483194895
 30
0.0
 40
1.8
  1
This is a non-controlled copy. All information given herein is subject to change without notice
  0
TEXT
  5
318
  8
SK2
  6
CONTINUOUS
 62
     7
 10
90.3314341545
 20
26.7375194895
 30
0.0
 40
1.8
  1
The information given herein has been carefully checked and is believed to be correct. REGO-FIX,
  0
TEXT
  5
319
  8
SK2
  6
CONTINUOUS
 62
     7
 10
90.2522341545
 20
23.7375194895
 30
0.0
 40
1.8
  1
however, assumes no responsibility or liability for any errors, inaccuracies or omissions that may appear
  0
TEXT
  5
31A
  8
SK2
  6
CONTINUOUS
 62
     7
 10
90.1856341545
 20
20.7375194895
 30
0.0
 40
1.8
  1
in this drawing
  0
TEXT
  5
31B
  8
SK2
  6
CONTINUOUS
 62
     7
 10
90.3314341545
 20
14.7375194895
 30
0.0
 40
1.8
  1
This document is subject to copyright laws. No part of this document may be reproduced or transmitted
  0
TEXT
  5
31C
  8
SK2
  6
CONTINUOUS
 62
     7
 10
90.1856341545
 20
11.7375194895
 30
0.0
 40
1.8
  1
in any form or any means, electronic or mechanic, for any purpose, without the express written permission
  0
TEXT
  5
31D
  8
SK2
  6
CONTINUOUS
 62
     7
 10
90.2486341545
 20
8.7267194895
 30
0.0
 40
1.8
  1
of REGO-FIX
  0
ENDBLK
  5
84B
  8
0
  0
BLOCK
  8
0
  2
*X18
 70
     1
 10
0.0
 20
0.0
 30
0.0
  3
*X18
  1

  0
TEXT
  5
31F
  8
SK2
  6
CONTINUOUS
 62
     7
 10
221.9308311835
 20
31.4392490761
 30
0.0
 40
3.5
  1
Type :
  0
TEXT
  5
320
  8
SK2
  6
CONTINUOUS
 62
     7
 10
221.7698311835
 20
25.6059157428
 30
0.0
 40
3.5
  1
Part No. :
  0
TEXT
  5
321
  8
SK2
  6
CONTINUOUS
 62
     7
 10
221.7733311835
 20
19.7725824095
 30
0.0
 40
3.5
  1
Date :
  0
TEXT
  5
322
  8
SK2
  6
CONTINUOUS
 62
     7
 10
221.8783311835
 20
13.9392490761
 30
0.0
 40
3.5
  1
Scale :
  0
ENDBLK
  5
84D
  8
0
  0
ENDSEC
  0
SECTION
  2
ENTITIES
  0
INSERT
  5
41
  8
SK2
  2
SE
 10
0.0
 20
0.0
 30
0.0
  0
INSERT
  5
10A
  8
SK2
  2
GDIMGGROUP
 10
0.0
 20
0.0
 30
0.0
  0
INSERT
  5
115
  8
SK2
  2
GDIMGGROUP1
 10
0.0
 20
0.0
 30
0.0
  0
INSERT
  5
11F
  8
SK2
  2
GDIMGGROUP2
 10
0.0
 20
0.0
 30
0.0
  0
INSERT
  5
129
  8
SK2
  2
GDIMGGROUP3
 10
0.0
 20
0.0
 30
0.0
  0
INSERT
  5
133
  8
SK2
  2
GDIMGGROUP4
 10
0.0
 20
0.0
 30
0.0
  0
INSERT
  5
13E
  8
SK2
  2
GDIMGGROUP5
 10
0.0
 20
0.0
 30
0.0
  0
INSERT
  5
148
  8
SK2
  2
GDIMGGROUP6
 10
0.0
 20
0.0
 30
0.0
  0
INSERT
  5
152
  8
SK2
  2
GDIMGGROUP7
 10
0.0
 20
0.0
 30
0.0
  0
INSERT
  5
15B
  8
SK2
  2
GDIMGGROUP8
 10
0.0
 20
0.0
 30
0.0
  0
INSERT
  5
219
  8
SK2
 62
     7
  2
RF-MASSBLATT_ZR
 10
0.0
 20
0.0
 30
0.0
  0
ENDSEC
  0
EOF
