  0
SECTION
  2
HEADER
  9
$ACADVER
  1
AC1015
  9
$ACADMAINTVER
 70
     6
  9
$DWGCODEPAGE
  3
ANSI_1252
  9
$INSBASE
 10
0.0
 20
0.0
 30
0.0
  9
$EXTMIN
 10
0.0
 20
0.0
 30
0.0
  9
$EXTMAX
 10
297.0
 20
210.0
 30
0.0
  9
$LIMMIN
 10
0.0
 20
0.0
  9
$LIMMAX
 10
297.0
 20
210.0
  9
$ORTHOMODE
 70
     0
  9
$REGENMODE
 70
     1
  9
$FILLMODE
 70
     1
  9
$QTEXTMODE
 70
     0
  9
$MIRRTEXT
 70
     1
  9
$LTSCALE
 40
1.0
  9
$ATTMODE
 70
     1
  9
$TEXTSIZE
 40
2.5
  9
$TRACEWID
 40
1.0
  9
$TEXTSTYLE
  7
Standard
  9
$CLAYER
  8
0
  9
$CELTYPE
  6
ByLayer
  9
$CECOLOR
 62
   256
  9
$CELTSCALE
 40
1.0
  9
$DISPSILH
 70
     0
  9
$DIMSCALE
 40
1.0
  9
$DIMASZ
 40
2.5
  9
$DIMEXO
 40
0.625
  9
$DIMDLI
 40
3.75
  9
$DIMRND
 40
0.0
  9
$DIMDLE
 40
0.0
  9
$DIMEXE
 40
1.25
  9
$DIMTP
 40
0.0
  9
$DIMTM
 40
0.0
  9
$DIMTXT
 40
2.5
  9
$DIMCEN
 40
2.5
  9
$DIMTSZ
 40
0.0
  9
$DIMTOL
 70
     0
  9
$DIMLIM
 70
     0
  9
$DIMTIH
 70
     0
  9
$DIMTOH
 70
     0
  9
$DIMSE1
 70
     0
  9
$DIMSE2
 70
     0
  9
$DIMTAD
 70
     1
  9
$DIMZIN
 70
     8
  9
$DIMBLK
  1

  9
$DIMASO
 70
     1
  9
$DIMSHO
 70
     1
  9
$DIMPOST
  1

  9
$DIMAPOST
  1

  9
$DIMALT
 70
     0
  9
$DIMALTD
 70
     3
  9
$DIMALTF
 40
0.0393700787
  9
$DIMLFAC
 40
1.0
  9
$DIMTOFL
 70
     1
  9
$DIMTVP
 40
0.0
  9
$DIMTIX
 70
     0
  9
$DIMSOXD
 70
     0
  9
$DIMSAH
 70
     0
  9
$DIMBLK1
  1

  9
$DIMBLK2
  1

  9
$DIMSTYLE
  2
ISO-25
  9
$DIMCLRD
 70
     0
  9
$DIMCLRE
 70
     0
  9
$DIMCLRT
 70
     0
  9
$DIMTFAC
 40
1.0
  9
$DIMGAP
 40
0.625
  9
$DIMJUST
 70
     0
  9
$DIMSD1
 70
     0
  9
$DIMSD2
 70
     0
  9
$DIMTOLJ
 70
     0
  9
$DIMTZIN
 70
     8
  9
$DIMALTZ
 70
     0
  9
$DIMALTTZ
 70
     0
  9
$DIMUPT
 70
     0
  9
$DIMDEC
 70
     2
  9
$DIMTDEC
 70
     2
  9
$DIMALTU
 70
     2
  9
$DIMALTTD
 70
     3
  9
$DIMTXSTY
  7
Standard
  9
$DIMAUNIT
 70
     0
  9
$DIMADEC
 70
     0
  9
$DIMALTRND
 40
0.0
  9
$DIMAZIN
 70
     0
  9
$DIMDSEP
 70
    44
  9
$DIMATFIT
 70
     3
  9
$DIMFRAC
 70
     0
  9
$DIMLDRBLK
  1

  9
$DIMLUNIT
 70
     2
  9
$DIMLWD
 70
    -2
  9
$DIMLWE
 70
    -2
  9
$DIMTMOVE
 70
     0
  9
$LUNITS
 70
     2
  9
$LUPREC
 70
     4
  9
$SKETCHINC
 40
1.0
  9
$FILLETRAD
 40
10.0
  9
$AUNITS
 70
     0
  9
$AUPREC
 70
     0
  9
$MENU
  1
.
  9
$ELEVATION
 40
0.0
  9
$PELEVATION
 40
0.0
  9
$THICKNESS
 40
0.0
  9
$LIMCHECK
 70
     0
  9
$CHAMFERA
 40
10.0
  9
$CHAMFERB
 40
10.0
  9
$CHAMFERC
 40
20.0
  9
$CHAMFERD
 40
0.0
  9
$SKPOLY
 70
     0
  9
$TDCREATE
 40
2457326.304113125
  9
$TDUCREATE
 40
2457326.262446458
  9
$TDUPDATE
 40
2457326.304114745
  9
$TDUUPDATE
 40
2457326.262448078
  9
$TDINDWG
 40
0.0000000116
  9
$TDUSRTIMER
 40
0.0000000116
  9
$USRTIMER
 70
     1
  9
$ANGBASE
 50
0.0
  9
$ANGDIR
 70
     0
  9
$PDMODE
 70
     0
  9
$PDSIZE
 40
0.0
  9
$PLINEWID
 40
0.0
  9
$SPLFRAME
 70
     0
  9
$SPLINETYPE
 70
     6
  9
$SPLINESEGS
 70
     8
  9
$HANDSEED
  5
222
  9
$SURFTAB1
 70
     6
  9
$SURFTAB2
 70
     6
  9
$SURFTYPE
 70
     6
  9
$SURFU
 70
     6
  9
$SURFV
 70
     6
  9
$UCSBASE
  2

  9
$UCSNAME
  2

  9
$UCSORG
 10
0.0
 20
0.0
 30
0.0
  9
$UCSXDIR
 10
1.0
 20
0.0
 30
0.0
  9
$UCSYDIR
 10
0.0
 20
1.0
 30
0.0
  9
$UCSORTHOREF
  2

  9
$UCSORTHOVIEW
 70
     0
  9
$UCSORGTOP
 10
0.0
 20
0.0
 30
0.0
  9
$UCSORGBOTTOM
 10
0.0
 20
0.0
 30
0.0
  9
$UCSORGLEFT
 10
0.0
 20
0.0
 30
0.0
  9
$UCSORGRIGHT
 10
0.0
 20
0.0
 30
0.0
  9
$UCSORGFRONT
 10
0.0
 20
0.0
 30
0.0
  9
$UCSORGBACK
 10
0.0
 20
0.0
 30
0.0
  9
$PUCSBASE
  2

  9
$PUCSNAME
  2

  9
$PUCSORG
 10
0.0
 20
0.0
 30
0.0
  9
$PUCSXDIR
 10
1.0
 20
0.0
 30
0.0
  9
$PUCSYDIR
 10
0.0
 20
1.0
 30
0.0
  9
$PUCSORTHOREF
  2

  9
$PUCSORTHOVIEW
 70
     0
  9
$PUCSORGTOP
 10
0.0
 20
0.0
 30
0.0
  9
$PUCSORGBOTTOM
 10
0.0
 20
0.0
 30
0.0
  9
$PUCSORGLEFT
 10
0.0
 20
0.0
 30
0.0
  9
$PUCSORGRIGHT
 10
0.0
 20
0.0
 30
0.0
  9
$PUCSORGFRONT
 10
0.0
 20
0.0
 30
0.0
  9
$PUCSORGBACK
 10
0.0
 20
0.0
 30
0.0
  9
$USERI1
 70
     0
  9
$USERI2
 70
     0
  9
$USERI3
 70
     0
  9
$USERI4
 70
     0
  9
$USERI5
 70
     0
  9
$USERR1
 40
0.0
  9
$USERR2
 40
0.0
  9
$USERR3
 40
0.0
  9
$USERR4
 40
0.0
  9
$USERR5
 40
0.0
  9
$WORLDVIEW
 70
     1
  9
$SHADEDGE
 70
     3
  9
$SHADEDIF
 70
    70
  9
$TILEMODE
 70
     1
  9
$MAXACTVP
 70
    64
  9
$PINSBASE
 10
0.0
 20
0.0
 30
0.0
  9
$PLIMCHECK
 70
     0
  9
$PEXTMIN
 10
0.0
 20
0.0
 30
0.0
  9
$PEXTMAX
 10
297.0
 20
210.0
 30
0.0
  9
$PLIMMIN
 10
0.0
 20
0.0
  9
$PLIMMAX
 10
297.0
 20
210.0
  9
$UNITMODE
 70
     0
  9
$VISRETAIN
 70
     1
  9
$PLINEGEN
 70
     0
  9
$PSLTSCALE
 70
     1
  9
$TREEDEPTH
 70
  3020
  9
$CMLSTYLE
  2
Standard
  9
$CMLJUST
 70
     0
  9
$CMLSCALE
 40
20.0
  9
$PROXYGRAPHICS
 70
     1
  9
$MEASUREMENT
 70
     1
  9
$CELWEIGHT
370
    -1
  9
$ENDCAPS
280
     0
  9
$JOINSTYLE
280
     0
  9
$LWDISPLAY
290
     0
  9
$INSUNITS
 70
     4
  9
$HYPERLINKBASE
  1

  9
$STYLESHEET
  1

  9
$XEDIT
290
     1
  9
$CEPSNTYPE
380
     0
  9
$PSTYLEMODE
290
     1
  9
$FINGERPRINTGUID
  2
{B2FBC60C-E54F-463C-B148-9DA4A8B41E18}
  9
$VERSIONGUID
  2
{FAEB1C32-E019-11D5-929B-00C0DF256EC4}
  9
$EXTNAMES
290
     1
  9
$PSVPSCALE
 40
0.0
  9
$OLESTARTUP
290
     0
  0
ENDSEC
  0
SECTION
  2
CLASSES
  0
CLASS
  1
ACDBDICTIONARYWDFLT
  2
AcDbDictionaryWithDefault
  3
ObjectDBX Classes
 90
        0
280
     0
281
     0
  0
CLASS
  1
VISUALSTYLE
  2
AcDbVisualStyle
  3
ObjectDBX Classes
 90
     4095
280
     0
281
     0
  0
CLASS
  1
MATERIAL
  2
AcDbMaterial
  3
ObjectDBX Classes
 90
     1153
280
     0
281
     0
  0
CLASS
  1
DICTIONARYVAR
  2
AcDbDictionaryVar
  3
ObjectDBX Classes
 90
        0
280
     0
281
     0
  0
CLASS
  1
ACDBPLACEHOLDER
  2
AcDbPlaceHolder
  3
ObjectDBX Classes
 90
        0
280
     0
281
     0
  0
CLASS
  1
LAYOUT
  2
AcDbLayout
  3
ObjectDBX Classes
 90
        0
280
     0
281
     0
  0
ENDSEC
  0
SECTION
  2
TABLES
  0
TABLE
  2
VPORT
  5
8
330
0
100
AcDbSymbolTable
 70
     1
  0
VPORT
  5
29
330
8
100
AcDbSymbolTableRecord
100
AcDbViewportTableRecord
  2
*Active
 70
     0
 10
0.0
 20
0.0
 11
1.0
 21
1.0
 12
344.1869158879
 22
148.5
 13
0.0
 23
0.0
 14
10.0
 24
10.0
 15
10.0
 25
10.0
 16
0.0
 26
0.0
 36
1.0
 17
0.0
 27
0.0
 37
0.0
 40
297.0
 41
1.9729729729
 42
50.0
 43
0.0
 44
0.0
 50
0.0
 51
0.0
 71
     0
 72
   100
 73
     1
 74
     3
 75
     0
 76
     0
 77
     0
 78
     0
281
     0
 65
     1
110
0.0
120
0.0
130
0.0
111
1.0
121
0.0
131
0.0
112
0.0
122
1.0
132
0.0
 79
     0
146
0.0
  0
ENDTAB
  0
TABLE
  2
LTYPE
  5
5
330
0
100
AcDbSymbolTable
 70
     2
  0
LTYPE
  5
14
330
5
100
AcDbSymbolTableRecord
100
AcDbLinetypeTableRecord
  2
ByBlock
 70
     0
  3

 72
    65
 73
     0
 40
0.0
  0
LTYPE
  5
15
330
5
100
AcDbSymbolTableRecord
100
AcDbLinetypeTableRecord
  2
ByLayer
 70
     0
  3

 72
    65
 73
     0
 40
0.0
  0
LTYPE
  5
16
330
5
100
AcDbSymbolTableRecord
100
AcDbLinetypeTableRecord
  2
Continuous
 70
     0
  3
Solid line
 72
    65
 73
     0
 40
0.0
  0
LTYPE
  5
43
330
5
100
AcDbSymbolTableRecord
100
AcDbLinetypeTableRecord
  2
CENTER2
 70
     0
  3
Center (.5x) ___ _ ___ _ ___ _ ___ _ ___ _ ___
 72
    65
 73
     4
 40
28.575
 49
19.05
 74
     4
 75
     0
340
0
 46
0.0
 50
0.0
 44
0.0
 45
0.0
 49
-3.175
 74
     4
 75
     0
340
0
 46
0.0
 50
0.0
 44
0.0
 45
0.0
 49
3.175
 74
     4
 75
     0
340
0
 46
0.0
 50
0.0
 44
0.0
 45
0.0
 49
-3.175
 74
     4
 75
     0
340
0
 46
0.0
 50
0.0
 44
0.0
 45
0.0
  0
ENDTAB
  0
TABLE
  2
LAYER
  5
2
330
0
100
AcDbSymbolTable
 70
     8
  0
LAYER
  5
10
330
2
100
AcDbSymbolTableRecord
100
AcDbLayerTableRecord
  2
0
 70
     0
 62
     7
  6
Continuous
370
    -3
390
F
  0
LAYER
  5
3F
330
2
100
AcDbSymbolTableRecord
100
AcDbLayerTableRecord
  2
Default
 70
     0
 62
     7
  6
Continuous
370
    -3
390
F
  0
LAYER
  5
42
330
2
100
AcDbSymbolTableRecord
100
AcDbLayerTableRecord
  2
DV1_Default
 70
     0
 62
     7
  6
Continuous
370
    -3
390
F
  0
LAYER
  5
54
330
2
100
AcDbSymbolTableRecord
100
AcDbLayerTableRecord
  2
0002793
 70
     0
 62
     7
  6
Continuous
370
    -3
390
F
  0
LAYER
  5
E9
330
2
100
AcDbSymbolTableRecord
100
AcDbLayerTableRecord
  2
0003464
 70
     0
 62
     7
  6
Continuous
370
    -3
390
F
  0
LAYER
  5
100
330
2
100
AcDbSymbolTableRecord
100
AcDbLayerTableRecord
  2
0003381
 70
     0
 62
     7
  6
Continuous
370
    -3
390
F
  0
LAYER
  5
12F
330
2
100
AcDbSymbolTableRecord
100
AcDbLayerTableRecord
  2
0007093
 70
     0
 62
     7
  6
Continuous
370
    -3
390
F
  0
LAYER
  5
141
330
2
100
AcDbSymbolTableRecord
100
AcDbLayerTableRecord
  2
0004885
 70
     0
 62
     7
  6
Continuous
370
    -3
390
F
  0
ENDTAB
  0
TABLE
  2
STYLE
  5
3
330
0
100
AcDbSymbolTable
 70
     5
  0
STYLE
  5
11
330
3
100
AcDbSymbolTableRecord
100
AcDbTextStyleTableRecord
  2
Standard
 70
     0
 40
0.0
 41
1.0
 50
0.0
 71
     0
 42
2.5
  3
txt
  4

  0
STYLE
  5
15C
330
3
100
AcDbSymbolTableRecord
100
AcDbTextStyleTableRecord
  2
SEACAD_Solid_Edge_ISO
 70
     0
 40
0.0
 41
1.0
 50
0.0
 71
     0
 42
0.2
  3
seiso.ttf
  4

1001
ACAD
1000
Solid Edge ISO
1071
        0
  0
STYLE
  5
165
330
3
100
AcDbSymbolTableRecord
100
AcDbTextStyleTableRecord
  2
SEACAD_Solid_Edge_ISO1_Symbols
 70
     0
 40
0.0
 41
1.0
 50
0.0
 71
     0
 42
0.2
  3
semeci1.ttf
  4

1001
ACAD
1000
Solid Edge ISO1 Symbols
1071
        0
  0
STYLE
  5
18A
330
3
100
AcDbSymbolTableRecord
100
AcDbTextStyleTableRecord
  2
SEACAD_Solid_Edge_ANSIB
 70
     0
 40
0.0
 41
1.0
 50
0.0
 71
     0
 42
0.2
  3
seansbd.ttf
  4

1001
ACAD
1000
Solid Edge ANSI
1071
 33554432
  0
STYLE
  5
18F
330
3
100
AcDbSymbolTableRecord
100
AcDbTextStyleTableRecord
  2
SEACAD_Solid_Edge_ANSI
 70
     0
 40
0.0
 41
1.0
 50
0.0
 71
     0
 42
0.2
  3
seans.ttf
  4

1001
ACAD
1000
Solid Edge ANSI
1071
        0
  0
ENDTAB
  0
TABLE
  2
VIEW
  5
6
330
0
100
AcDbSymbolTable
 70
     0
  0
ENDTAB
  0
TABLE
  2
UCS
  5
7
330
0
100
AcDbSymbolTable
 70
     0
  0
ENDTAB
  0
TABLE
  2
APPID
  5
9
330
0
100
AcDbSymbolTable
 70
     1
  0
APPID
  5
12
330
9
100
AcDbSymbolTableRecord
100
AcDbRegAppTableRecord
  2
ACAD
 70
     0
  0
ENDTAB
  0
TABLE
  2
DIMSTYLE
  5
A
330
0
100
AcDbSymbolTable
 70
     1
100
AcDbDimStyleTable
  0
DIMSTYLE
105
27
330
A
100
AcDbSymbolTableRecord
100
AcDbDimStyleTableRecord
  2
ISO-25
 70
     0
 41
2.5
 42
0.625
 43
3.75
 44
1.25
 73
     0
 74
     0
 77
     1
 78
     8
140
2.5
141
2.5
143
0.0393700787
147
0.625
171
     3
172
     1
178
     0
271
     2
272
     2
274
     3
278
    44
283
     0
284
     8
340
11
  0
ENDTAB
  0
TABLE
  2
BLOCK_RECORD
  5
1
330
0
100
AcDbSymbolTable
 70
    13
  0
BLOCK_RECORD
  5
1F
330
1
100
AcDbSymbolTableRecord
100
AcDbBlockTableRecord
  2
*Model_Space
340
22
  0
BLOCK_RECORD
  5
1B
330
1
100
AcDbSymbolTableRecord
100
AcDbBlockTableRecord
  2
*Paper_Space
340
1E
  0
BLOCK_RECORD
  5
40
330
1
100
AcDbSymbolTableRecord
100
AcDbBlockTableRecord
  2
SE
340
0
102
{BLKREFS
331
41
102
}
  0
BLOCK_RECORD
  5
155
330
1
100
AcDbSymbolTableRecord
100
AcDbBlockTableRecord
  2
GDimGGroup
340
0
102
{BLKREFS
331
156
102
}
  0
BLOCK_RECORD
  5
160
330
1
100
AcDbSymbolTableRecord
100
AcDbBlockTableRecord
  2
GDimGGroup1
340
0
102
{BLKREFS
331
161
102
}
  0
BLOCK_RECORD
  5
16A
330
1
100
AcDbSymbolTableRecord
100
AcDbBlockTableRecord
  2
GDimGGroup2
340
0
102
{BLKREFS
331
16B
102
}
  0
BLOCK_RECORD
  5
175
330
1
100
AcDbSymbolTableRecord
100
AcDbBlockTableRecord
  2
GDimGGroup3
340
0
102
{BLKREFS
331
176
102
}
  0
BLOCK_RECORD
  5
17F
330
1
100
AcDbSymbolTableRecord
100
AcDbBlockTableRecord
  2
GDimGGroup4
340
0
102
{BLKREFS
331
180
102
}
  0
BLOCK_RECORD
  5
189
330
1
100
AcDbSymbolTableRecord
100
AcDbBlockTableRecord
  2
SEANNOT_GROUP
340
0
102
{BLKREFS
331
1E6
102
}
  0
BLOCK_RECORD
  5
18E
330
1
100
AcDbSymbolTableRecord
100
AcDbBlockTableRecord
  2
SEANNOT_GROUP1
340
0
102
{BLKREFS
331
1E7
102
}
  0
BLOCK_RECORD
  5
193
330
1
100
AcDbSymbolTableRecord
100
AcDbBlockTableRecord
  2
SEANNOT_GROUP2
340
0
102
{BLKREFS
331
1E9
102
}
  0
BLOCK_RECORD
  5
197
330
1
100
AcDbSymbolTableRecord
100
AcDbBlockTableRecord
  2
SEANNOT_GROUP3
340
0
102
{BLKREFS
331
1EA
102
}
  0
BLOCK_RECORD
  5
19B
330
1
100
AcDbSymbolTableRecord
100
AcDbBlockTableRecord
  2
Block1
340
0
102
{BLKREFS
331
1EB
102
}
  0
BLOCK_RECORD
  5
1E3
330
1
100
AcDbSymbolTableRecord
100
AcDbBlockTableRecord
  2
RF-Massblatt_2016
340
0
102
{BLKREFS
331
1EE
102
}
  0
ENDTAB
  0
ENDSEC
  0
SECTION
  2
BLOCKS
  0
BLOCK
  5
20
330
1F
100
AcDbEntity
  8
0
100
AcDbBlockBegin
  2
*Model_Space
 70
     0
 10
0.0
 20
0.0
 30
0.0
  3
*Model_Space
  1

  0
ENDBLK
  5
21
330
1F
100
AcDbEntity
  8
0
100
AcDbBlockEnd
  0
BLOCK
  5
1C
330
1B
100
AcDbEntity
 67
     1
  8
0
100
AcDbBlockBegin
  2
*Paper_Space
 70
     0
 10
0.0
 20
0.0
 30
0.0
  3
*Paper_Space
  1

  0
ENDBLK
  5
1D
330
1B
100
AcDbEntity
 67
     1
  8
0
100
AcDbBlockEnd
  0
BLOCK
  5
153
330
40
100
AcDbEntity
  8
0
100
AcDbBlockBegin
  2
SE
 70
     0
 10
0.0
 20
0.0
 30
0.0
  3
SE
  1

  0
LINE
  5
44
330
40
100
AcDbEntity
  8
DV1_Default
  6
CENTER2
 62
     7
100
AcDbLine
 10
45.4745915781
 20
107.0603918857
 30
0.0
 11
232.9745915781
 21
107.0603918857
 31
0.0
  0
LINE
  5
45
330
40
100
AcDbEntity
  8
DV1_Default
  6
CENTER2
 62
     7
100
AcDbLine
 10
176.6754672908
 20
126.5603918857
 30
0.0
 11
208.8995915781
 21
126.5603918857
 31
0.0
  0
LINE
  5
46
330
40
100
AcDbEntity
  8
DV1_Default
  6
CENTER2
 62
     7
100
AcDbLine
 10
208.8995915781
 20
87.5603918857
 30
0.0
 11
186.4407137748
 21
87.5603918857
 31
0.0
  0
LINE
  5
47
330
40
100
AcDbEntity
  8
DV1_Default
  6
CENTER2
 62
     7
100
AcDbLine
 10
75.0995916591
 20
107.0603918857
 30
0.0
 11
69.8495914971
 21
107.0603918857
 31
0.0
  0
LINE
  5
48
330
40
100
AcDbEntity
  8
DV1_Default
  6
CENTER2
 62
     7
100
AcDbLine
 10
72.4745915781
 20
109.6853919667
 30
0.0
 11
72.4745915781
 21
104.4353918046
 31
0.0
  0
LINE
  5
49
330
40
100
AcDbEntity
  8
DV1_Default
  6
CENTER2
 62
     7
100
AcDbLine
 10
77.7245917402
 20
107.0603918857
 30
0.0
 11
80.0495915781
 21
107.0603918857
 31
0.0
  0
LINE
  5
4A
330
40
100
AcDbEntity
  8
DV1_Default
  6
CENTER2
 62
     7
100
AcDbLine
 10
72.4745915781
 20
112.3103920477
 30
0.0
 11
72.4745915781
 21
114.6353918857
 31
0.0
  0
LINE
  5
4B
330
40
100
AcDbEntity
  8
DV1_Default
  6
CENTER2
 62
     7
100
AcDbLine
 10
67.2245914161
 20
107.0603918857
 30
0.0
 11
64.8995915781
 21
107.0603918857
 31
0.0
  0
LINE
  5
4C
330
40
100
AcDbEntity
  8
DV1_Default
  6
CENTER2
 62
     7
100
AcDbLine
 10
72.4745915781
 20
101.8103917236
 30
0.0
 11
72.4745915781
 21
99.4853918857
 31
0.0
  0
LINE
  5
4D
330
40
100
AcDbEntity
  8
DV1_Default
  6
CENTER2
 62
     7
100
AcDbLine
 10
108.4748647435
 20
98.432592143
 30
0.0
 11
108.4748647435
 21
115.2423995816
 31
0.0
  0
HATCH
  5
4E
330
40
100
AcDbEntity
  8
DV1_Default
  6
Continuous
 62
     7
100
AcDbHatch
 10
0.0
 20
0.0
 30
0.0
210
0.0
220
0.0
230
1.0
  2
LINE
 70
     0
 71
     0
 91
        1
 92
        1
 93
       67
 72
     1
 10
197.7245915781098
 20
134.0603918856686
 11
133.5245915781098
 21
134.0603918856686
 72
     1
 10
133.5245915781098
 20
134.0603918856686
 11
123.0245915781098
 21
144.5603918856686
 72
     1
 10
123.0245915781098
 20
144.5603918856686
 11
93.92459157810978
 21
144.5603918856685
 72
     1
 10
93.92459157810978
 20
144.5603918856685
 11
93.47459157810977
 21
144.1103918856685
 72
     1
 10
93.47459157810977
 20
144.1103918856685
 11
93.47459157810977
 21
136.4067122292282
 72
     1
 10
93.47459157810977
 20
136.4067122292282
 11
93.6352517498896
 21
136.2460520574484
 72
     2
 10
92.57459157810976
 20
135.1853918856686
 40
1.499999999999999
 50
315.0
 51
420.0000000000005
 73
     0
 72
     1
 10
93.32459157810976
 20
133.8863537799919
 11
93.32459157810976
 21
132.7539126656762
 72
     1
 10
93.32459157810976
 20
132.7539126656762
 11
93.17459157810977
 21
132.6017129674658
 72
     1
 10
93.17459157810977
 20
132.6017129674658
 11
90.32459157810976
 21
132.5294053348265
 72
     1
 10
90.32459157810976
 20
132.5294053348266
 11
90.05370038836091
 21
132.8042714622204
 72
     4
 94
        3
 73
     0
 74
     0
 95
       11
 96
        7
 40
0.0
 40
0.0
 40
0.0
 40
0.0
 40
0.8771649613207244
 40
0.8771649613207244
 40
0.8771649613207244
 40
1.0
 40
1.0
 40
1.0
 40
1.0
 10
90.05370038836091
 20
132.8042714622204
 10
78.5181672932813
 20
132.5116572381788
 10
66.98263673154963
 20
132.2189431239652
 10
55.44710889758307
 20
131.9261215681149
 10
53.83171490638119
 20
131.885115886483
 10
52.21632096869185
 20
131.8441080967021
 10
50.60092708508004
 20
131.803098176843
 72
     4
 94
        3
 73
     0
 74
     0
 95
        8
 96
        4
 40
0.0
 40
0.0
 40
0.0
 40
0.0
 40
1.0
 40
1.0
 40
1.0
 40
1.0
 10
50.60092708508004
 20
131.803098176843
 10
49.89203474024053
 20
131.3631738639178
 10
49.18325112793888
 20
130.9230721082745
 10
48.47459157810977
 20
130.4827732634379
 72
     1
 10
48.47459157810977
 20
130.4827732634379
 11
48.47459157810977
 21
125.1760285266791
 72
     2
 10
50.57459157810978
 20
125.9838032477493
 40
2.25
 50
201.0394697813161
 51
254.9999999999997
 73
     1
 72
     1
 10
49.9922487266291
 20
123.8104701385989
 11
53.72459157810976
 21
122.8103918856686
 72
     1
 10
53.72459157810976
 20
122.8103918856686
 11
55.22459157810976
 21
122.8103918856686
 72
     1
 10
55.22459157810976
 20
122.8103918856686
 11
56.02222282328198
 21
123.2709044997828
 72
     2
 10
58.22459157810976
 20
122.8103918856686
 40
2.25
 50
191.810314895779
 51
270.0
 73
     0
 72
     1
 10
58.22459157810976
 20
125.0603918856686
 11
59.6926110627703
 21
125.0603918856686
 72
     2
 10
59.6926110627703
 20
122.8103918856686
 40
2.25
 50
270.0
 51
314.9999999999996
 73
     0
 72
     1
 10
61.28360132044002
 20
124.4013821433383
 11
62.87459157810976
 21
122.8103918856686
 72
     1
 10
62.87459157810977
 20
122.8103918856686
 11
77.72459157810977
 21
122.8103918856686
 72
     2
 10
77.72459157810977
 20
122.0603918856686
 40
0.7500000000000007
 50
270.0
 51
360.0
 73
     0
 72
     1
 10
78.47459157810977
 20
122.0603918856686
 11
78.47459157810977
 21
119.0603918856686
 72
     1
 10
78.47459157810977
 20
119.0603918856686
 11
103.9745915781098
 21
119.0603918856686
 72
     1
 10
103.9745915781098
 20
119.0603918856686
 11
103.9745915781098
 21
117.8423918856686
 72
     1
 10
103.9745915781098
 20
117.8423918856686
 11
112.2245915781098
 21
117.8423918856686
 72
     1
 10
112.2245915781098
 20
117.8423918856686
 11
115.0518554608789
 21
112.0456418856686
 72
     1
 10
115.0518554608789
 20
112.0456418856686
 11
184.9745915781098
 21
112.0456418856686
 72
     1
 10
184.9745915781097
 20
112.0456418856686
 11
184.9745915781098
 21
113.0603918856686
 72
     1
 10
184.9745915781098
 20
113.0603918856686
 11
208.7943333924015
 21
113.0603918856686
 72
     1
 10
208.7943333924015
 20
113.0603918856686
 11
208.9745915781098
 21
113.3603918856686
 72
     1
 10
208.9745915781098
 20
113.3603918856686
 11
212.7245915781098
 21
113.3603918856686
 72
     2
 10
212.7245915781098
 20
115.6103918856686
 40
2.25
 50
270.0
 51
360.0
 73
     1
 72
     1
 10
214.9745915781098
 20
115.6103918856686
 11
214.9745915781098
 21
117.8603918856686
 72
     1
 10
214.9745915781098
 20
117.8603918856686
 11
213.7745915781097
 21
119.0603918856686
 72
     1
 10
213.7745915781098
 20
119.0603918856686
 11
201.3248801464068
 21
119.0603918856686
 72
     1
 10
201.3248801464068
 20
119.0603918856686
 11
200.2052649041361
 21
118.7603918856686
 72
     1
 10
200.2052649041361
 20
118.7603918856686
 11
199.0745915781098
 21
118.7603918856686
 72
     2
 10
199.0745915781098
 20
119.6603918856686
 40
0.8999999999999783
 50
90.0
 51
187.9999999999974
 73
     0
 72
     1
 10
198.1833503162424
 20
119.7856476765326
 11
198.2922335140752
 21
120.5603918856686
 72
     1
 10
198.2922335140752
 20
120.5603918856686
 11
197.8745915781098
 21
120.5603918856686
 72
     1
 10
197.8745915781098
 20
120.5603918856686
 11
197.7245915781098
 21
120.5603918856686
 72
     1
 10
197.7245915781098
 20
120.5603918856686
 11
197.7245915781098
 21
120.7103918856686
 72
     1
 10
197.7245915781098
 20
120.7103918856686
 11
197.7245915781098
 21
121.5353918856686
 72
     1
 10
197.7245915781098
 20
121.5353918856686
 11
197.1995915781098
 21
122.0603918856686
 72
     1
 10
197.1995915781098
 20
122.0603918856686
 11
192.4745915781098
 21
122.0603918856686
 72
     1
 10
192.4745915781098
 20
122.0603918856686
 11
192.4745915781098
 21
124.1161418856686
 72
     1
 10
192.4745915781098
 20
124.1161418856686
 11
192.2803415781098
 21
124.3103918856686
 72
     1
 10
192.2803415781098
 20
124.3103918856686
 11
187.1495915781098
 21
124.3103918856686
 72
     1
 10
187.1495915781098
 20
124.3103918856686
 11
185.2745915781098
 21
124.3103918856686
 72
     1
 10
185.2745915781098
 20
124.3103918856686
 11
185.2745915781098
 21
124.7311418856686
 72
     1
 10
185.2745915781098
 20
124.7311418856686
 11
180.7745915781098
 21
124.7311418856686
 72
     1
 10
180.7745915781098
 20
124.7311418856686
 11
179.6754672907537
 21
126.5603918856686
 72
     1
 10
179.6754672907537
 20
126.5603918856686
 11
180.7745915781098
 21
128.3896418856685
 72
     1
 10
180.7745915781098
 20
128.3896418856685
 11
185.2745915781098
 21
128.3896418856685
 72
     1
 10
185.2745915781098
 20
128.3896418856685
 11
185.2745915781098
 21
128.8103918856686
 72
     1
 10
185.2745915781098
 20
128.8103918856686
 11
192.2803415781098
 21
128.8103918856686
 72
     1
 10
192.2803415781098
 20
128.8103918856686
 11
192.4745915781098
 21
129.0046418856685
 72
     1
 10
192.4745915781098
 20
129.0046418856685
 11
192.4745915781098
 21
131.0603918856686
 72
     1
 10
192.4745915781098
 20
131.0603918856686
 11
197.1995915781098
 21
131.0603918856686
 72
     1
 10
197.1995915781098
 20
131.0603918856686
 11
197.7245915781098
 21
131.5853918856686
 72
     1
 10
197.7245915781098
 20
131.5853918856686
 11
197.7245915781098
 21
132.5603918856686
 72
     1
 10
197.7245915781098
 20
132.5603918856686
 11
198.4745915781098
 21
132.5603918856686
 72
     1
 10
198.4745915781098
 20
132.5603918856686
 11
198.4745915781098
 21
133.3103918856686
 72
     1
 10
198.4745915781098
 20
133.3103918856686
 11
197.7245915781098
 21
134.0603918856686
 97
        0
 75
     0
 76
     1
 52
-45.0
 41
1.0
 77
     0
 78
     1
 53
-45.0
 43
0.0
 44
0.0
 45
2.245064030267288
 46
2.245064030267288
 79
     0
 98
        0
  0
HATCH
  5
4F
330
40
100
AcDbEntity
  8
DV1_Default
  6
Continuous
 62
     7
100
AcDbHatch
 10
0.0
 20
0.0
 30
0.0
210
0.0
220
0.0
230
1.0
  2
LINE
 70
     0
 71
     0
 91
        1
 92
        1
 93
        5
 72
     1
 10
103.9745915781098
 20
119.0603918856686
 11
78.47459157810977
 21
119.0603918856686
 72
     1
 10
78.47459157810978
 20
119.0603918856686
 11
78.47459157810977
 21
118.9157918856686
 72
     1
 10
78.47459157810977
 20
118.9157918856686
 11
79.09431935705791
 21
117.8423918856686
 72
     1
 10
79.09431935705791
 20
117.8423918856686
 11
103.9745915781098
 21
117.8423918856686
 72
     1
 10
103.9745915781098
 20
117.8423918856686
 11
103.9745915781098
 21
119.0603918856686
 97
        0
 75
     0
 76
     1
 52
-45.0
 41
1.0
 77
     0
 78
     1
 53
-45.0
 43
0.0
 44
0.0
 45
2.245064030267288
 46
2.245064030267288
 79
     0
 98
        0
  0
HATCH
  5
50
330
40
100
AcDbEntity
  8
DV1_Default
  6
Continuous
 62
     7
100
AcDbHatch
 10
0.0
 20
0.0
 30
0.0
210
0.0
220
0.0
230
1.0
  2
LINE
 70
     0
 71
     0
 91
        1
 92
        1
 93
        4
 72
     1
 10
187.1495915781098
 20
128.8103918856686
 11
185.2745915781098
 21
128.8103918856686
 72
     1
 10
185.2745915781098
 20
128.8103918856686
 11
185.2745915781098
 21
128.4046418856686
 72
     1
 10
185.2745915781098
 20
128.4046418856686
 11
186.7438415781098
 21
128.4046418856686
 72
     1
 10
186.7438415781098
 20
128.4046418856686
 11
187.1495915781098
 21
128.8103918856686
 97
        0
 75
     0
 76
     1
 52
-45.0
 41
1.0
 77
     0
 78
     1
 53
-45.0
 43
0.0
 44
0.0
 45
2.245064030267288
 46
2.245064030267288
 79
     0
 98
        0
  0
HATCH
  5
51
330
40
100
AcDbEntity
  8
DV1_Default
  6
Continuous
 62
     7
100
AcDbHatch
 10
0.0
 20
0.0
 30
0.0
210
0.0
220
0.0
230
1.0
  2
LINE
 70
     0
 71
     0
 91
        1
 92
        1
 93
        4
 72
     1
 10
185.2745915781098
 20
124.3103918856686
 11
187.1495915781098
 21
124.3103918856686
 72
     1
 10
187.1495915781098
 20
124.3103918856686
 11
186.7438415781098
 21
124.7161418856686
 72
     1
 10
186.7438415781098
 20
124.7161418856686
 11
185.2745915781098
 21
124.7161418856686
 72
     1
 10
185.2745915781098
 20
124.7161418856686
 11
185.2745915781098
 21
124.3103918856686
 97
        0
 75
     0
 76
     1
 52
-45.0
 41
1.0
 77
     0
 78
     1
 53
-45.0
 43
0.0
 44
0.0
 45
2.245064030267288
 46
2.245064030267288
 79
     0
 98
        0
  0
LINE
  5
52
330
40
100
AcDbEntity
  8
DV1_Default
  6
Continuous
 62
     7
100
AcDbLine
 10
185.2745915781
 20
124.3103918857
 30
0.0
 11
185.2745915781
 21
128.8103918857
 31
0.0
  0
HATCH
  5
53
330
40
100
AcDbEntity
  8
DV1_Default
  6
Continuous
 62
     7
100
AcDbHatch
 10
0.0
 20
0.0
 30
0.0
210
0.0
220
0.0
230
1.0
  2
LINE
 70
     0
 71
     0
 91
        1
 92
        1
 93
        4
 72
     1
 10
199.4894353281097
 20
113.0603918856686
 11
184.9745915781098
 21
113.0603918856686
 72
     1
 10
184.9745915781097
 20
113.0603918856686
 11
184.9745915781098
 21
112.0456418856686
 72
     1
 10
184.9745915781098
 20
112.0456418856686
 11
198.4746853281097
 21
112.0456418856686
 72
     1
 10
198.4746853281098
 20
112.0456418856686
 11
199.4894353281098
 21
113.0603918856686
 97
        0
 75
     0
 76
     1
 52
-45.0
 41
1.0
 77
     0
 78
     1
 53
-45.0
 43
0.0
 44
0.0
 45
2.245064030267288
 46
2.245064030267288
 79
     0
 98
        0
  0
LINE
  5
55
330
40
100
AcDbEntity
  8
0002793
  6
Continuous
 62
     7
100
AcDbLine
 10
198.4745915781
 20
133.3103918857
 30
0.0
 11
197.7245915781
 21
134.0603918857
 31
0.0
  0
LINE
  5
56
330
40
100
AcDbEntity
  8
0002793
  6
Continuous
 62
     7
100
AcDbLine
 10
198.4745915781
 20
80.8103918857
 30
0.0
 11
198.4745915781
 21
107.0603918857
 31
0.0
  0
LINE
  5
57
330
40
100
AcDbEntity
  8
0002793
  6
Continuous
 62
     7
100
AcDbLine
 10
197.7245915781
 20
107.0603918857
 30
0.0
 11
197.7245915781
 21
80.0603918857
 31
0.0
  0
SPLINE
  5
58
330
40
100
AcDbEntity
  8
0002793
  6
Continuous
 62
     7
100
AcDbSpline
210
0.0
220
0.0
230
1.0
 70
     8
 71
     3
 72
    14
 73
    10
 74
     0
 42
0.0000000005314821
 43
0.0000000001
 12
1.0
 22
0.0
 32
0.0
 13
1.0
 23
0.0
 33
0.0
 40
0.0
 40
0.0
 40
0.0
 40
0.0
 40
0.2500000000000001
 40
0.2500000000000001
 40
0.5000000000000001
 40
0.5000000000000001
 40
0.7500000000000001
 40
0.7500000000000001
 40
1.0
 40
1.0
 40
1.0
 40
1.0
 10
102.4220915781098
 20
107.0603918856686
 30
0.0
 10
102.4220915781098
 20
105.5331063726798
 30
0.0
 10
103.1477493537202
 20
104.0185270051374
 30
0.0
 10
105.4211614195501
 20
101.9881780617015
 30
0.0
 10
106.9491268709296
 20
101.4300976347918
 30
0.0
 10
110.0211807516714
 20
101.4351034158552
 30
0.0
 10
111.5345558474181
 20
101.9878360793054
 30
0.0
 10
113.8214184643301
 20
104.0426244377833
 30
0.0
 10
114.5270915781098
 20
105.5348355981874
 30
0.0
 10
114.5270915781098
 20
107.0603918856686
 30
0.0
  0
LINE
  5
59
330
40
100
AcDbEntity
  8
0002793
  6
Continuous
 62
     7
100
AcDbLine
 10
50.6009270851
 20
99.844950281
 30
0.0
 11
50.6009270851
 21
81.7698179629
 31
0.0
  0
LINE
  5
5A
330
40
100
AcDbEntity
  8
0002793
  6
Continuous
 62
     7
100
AcDbLine
 10
50.6009270851
 20
107.0603918857
 30
0.0
 11
50.6009270851
 21
99.844950281
 31
0.0
  0
LINE
  5
5B
330
40
100
AcDbEntity
  8
0002793
  6
Continuous
 62
     7
100
AcDbLine
 10
50.6009270851
 20
132.3509658085
 30
0.0
 11
50.6009270851
 21
131.8030981768
 31
0.0
  0
LINE
  5
5C
330
40
100
AcDbEntity
  8
0002793
  6
Continuous
 62
     7
100
AcDbLine
 10
48.4745915781
 20
130.4827732634
 30
0.0
 11
48.4745915781
 21
131.0514031403
 31
0.0
  0
LINE
  5
5D
330
40
100
AcDbEntity
  8
0002793
  6
Continuous
 62
     7
100
AcDbLine
 10
48.4745915781
 20
100.4947316151
 30
0.0
 11
48.4745915781
 21
107.0603918857
 31
0.0
  0
LINE
  5
5E
330
40
100
AcDbEntity
  8
0002793
  6
Continuous
 62
     7
100
AcDbLine
 10
48.4745915781
 20
83.0693806311
 30
0.0
 11
48.4745915781
 21
100.4947316151
 31
0.0
  0
LINE
  5
5F
330
40
100
AcDbEntity
  8
0002793
  6
Continuous
 62
     7
100
AcDbLine
 10
93.4745915781
 20
107.0603918857
 30
0.0
 11
93.4745915781
 21
70.0103918857
 31
0.0
  0
LINE
  5
60
330
40
100
AcDbEntity
  8
0002793
  6
Continuous
 62
     7
100
AcDbLine
 10
123.0245915781
 20
107.0603918857
 30
0.0
 11
123.0245915781
 21
69.5603918857
 31
0.0
  0
LINE
  5
61
330
40
100
AcDbEntity
  8
0002793
  6
Continuous
 62
     7
100
AcDbLine
 10
93.9245915781
 20
69.5603918857
 30
0.0
 11
93.9245915781
 21
107.0603918857
 31
0.0
  0
ELLIPSE
  5
62
330
40
100
AcDbEntity
  8
0002793
  6
Continuous
 62
     7
100
AcDbEllipse
 10
125.0589780606
 20
107.0603918857
 30
0.0
 11
-17.56390852459091
 21
-37.01577966140619
 31
0.0
210
0.0
220
0.0
230
1.0
 40
0.3419987131
 41
5.203068809370449
 42
6.114256032590468
  0
ARC
  5
63
330
40
100
AcDbEntity
  8
0002793
  6
Continuous
 62
     7
100
AcDbCircle
 10
106.2213613728
 20
72.1470423057
 30
0.0
 40
0.8279635636438915
100
AcDbArc
 50
223.0892769362
 51
273.1062468528
  0
LINE
  5
64
330
40
100
AcDbEntity
  8
0002793
  6
Continuous
 62
     7
100
AcDbLine
 10
110.6829563578
 20
71.3202952124
 30
0.0
 11
106.2662267985
 21
71.3202952124
 31
0.0
  0
ARC
  5
65
330
40
100
AcDbEntity
  8
0002793
  6
Continuous
 62
     7
100
AcDbCircle
 10
110.7278208737
 20
72.1470445686
 30
0.0
 40
0.8279657738814057
100
AcDbArc
 50
266.8938244964
 51
316.9106517146
  0
ELLIPSE
  5
66
330
40
100
AcDbEntity
  8
0002793
  6
Continuous
 62
     7
100
AcDbEllipse
 10
91.8902050956
 20
107.0603918857
 30
0.0
 11
17.56390852459098
 21
-37.01577966140628
 31
0.0
210
0.0
220
0.0
230
1.0
 40
0.3419987131
 41
0.1689292745891171
 42
1.080116497809136
  0
ARC
  5
67
330
40
100
AcDbEntity
  8
0002793
  6
Continuous
 62
     7
100
AcDbCircle
 10
122.6080867236
 20
106.9640402949
 30
0.0
 40
31.72989555263025
100
AcDbArc
 50
179.8260143032
 51
191.4887019738
  0
LINE
  5
68
330
40
100
AcDbEntity
  8
0002793
  6
Continuous
 62
     7
100
AcDbLine
 10
93.3245915781
 20
98.8499443799
 30
0.0
 11
93.3245915781
 21
80.2344299913
 31
0.0
  0
LINE
  5
69
330
40
100
AcDbEntity
  8
0002793
  6
Continuous
 62
     7
100
AcDbLine
 10
50.6009270851
 20
81.7698179629
 30
0.0
 11
90.0537003884
 21
80.7834117902
 31
0.0
  0
LINE
  5
6A
330
40
100
AcDbEntity
  8
0002793
  6
Continuous
 62
     7
100
AcDbLine
 10
50.6009270851
 20
132.3509658085
 30
0.0
 11
90.0537003884
 21
133.3373719812
 31
0.0
  0
LINE
  5
6B
330
40
100
AcDbEntity
  8
0002793
  6
Continuous
 62
     7
100
AcDbLine
 10
78.4745915781
 20
118.9157918857
 30
0.0
 11
78.4745915781
 21
107.0603918857
 31
0.0
  0
LINE
  5
6C
330
40
100
AcDbEntity
  8
0002793
  6
Continuous
 62
     7
100
AcDbLine
 10
62.8745915781
 20
122.8103918857
 30
0.0
 11
62.8745915781
 21
107.0603918857
 31
0.0
  0
LINE
  5
6D
330
40
100
AcDbEntity
  8
0002793
  6
Continuous
 62
     7
100
AcDbLine
 10
56.0222228233
 20
123.2709044998
 30
0.0
 11
56.0222228233
 21
107.0603918857
 31
0.0
  0
LINE
  5
6E
330
40
100
AcDbEntity
  8
0002793
  6
Continuous
 62
     7
100
AcDbLine
 10
55.2245915781
 20
122.8103918857
 30
0.0
 11
55.2245915781
 21
107.0603918857
 31
0.0
  0
LINE
  5
6F
330
40
100
AcDbEntity
  8
0002793
  6
Continuous
 62
     7
100
AcDbLine
 10
53.7245915781
 20
122.8103918857
 30
0.0
 11
53.7245915781
 21
107.0603918857
 31
0.0
  0
LINE
  5
70
330
40
100
AcDbEntity
  8
0002793
  6
Continuous
 62
     7
100
AcDbLine
 10
79.0943193571
 20
107.0603918857
 30
0.0
 11
79.0943193571
 21
117.8423918857
 31
0.0
  0
LINE
  5
71
330
40
100
AcDbEntity
  8
0002793
  6
Continuous
 62
     7
100
AcDbLine
 10
112.2245915781
 20
107.0603918857
 30
0.0
 11
112.2245915781
 21
117.8423918857
 31
0.0
  0
LINE
  5
72
330
40
100
AcDbEntity
  8
0002793
  6
Continuous
 62
     7
100
AcDbLine
 10
90.0537003884
 20
80.7834117902
 30
0.0
 11
90.0537003884
 21
99.3517471946
 31
0.0
  0
LINE
  5
73
330
40
100
AcDbEntity
  8
0002793
  6
Continuous
 62
     7
100
AcDbLine
 10
90.0537003884
 20
99.3517471946
 30
0.0
 11
90.0537003884
 21
107.0603918857
 31
0.0
  0
LINE
  5
74
330
40
100
AcDbEntity
  8
0002793
  6
Continuous
 62
     7
100
AcDbLine
 10
90.0537003884
 20
132.8042714622
 30
0.0
 11
90.0537003884
 21
133.3373719812
 31
0.0
  0
LINE
  5
75
330
40
100
AcDbEntity
  8
0002793
  6
Continuous
 62
     7
100
AcDbLine
 10
90.3245915781
 20
81.0543029799
 30
0.0
 11
90.3245915781
 21
99.4871927895
 31
0.0
  0
LINE
  5
76
330
40
100
AcDbEntity
  8
0002793
  6
Continuous
 62
     7
100
AcDbLine
 10
93.1745915781
 20
80.9842840019
 30
0.0
 11
93.1745915781
 21
99.1903591645
 31
0.0
  0
LINE
  5
77
330
40
100
AcDbEntity
  8
0002793
  6
Continuous
 62
     7
100
AcDbLine
 10
90.3245915781
 20
81.0543029799
 30
0.0
 11
90.0537003884
 21
80.7834117902
 31
0.0
  0
LINE
  5
78
330
40
100
AcDbEntity
  8
0002793
  6
Continuous
 62
     7
100
AcDbLine
 10
91.8919883797
 20
81.0151146099
 30
0.0
 11
90.3245915781
 21
81.0543029799
 31
0.0
  0
LINE
  5
79
330
40
100
AcDbEntity
  8
0002793
  6
Continuous
 62
     7
100
AcDbLine
 10
90.3245915781
 20
133.0664807914
 30
0.0
 11
90.0537003884
 21
133.3373719812
 31
0.0
  0
LINE
  5
7A
330
40
100
AcDbEntity
  8
0002793
  6
Continuous
 62
     7
100
AcDbLine
 10
90.3245915781
 20
132.5294053348
 30
0.0
 11
90.3245915781
 21
133.0664807914
 31
0.0
  0
LINE
  5
7B
330
40
100
AcDbEntity
  8
0002793
  6
Continuous
 62
     7
100
AcDbLine
 10
91.8919883797
 20
133.1056691615
 30
0.0
 11
90.3245915781
 21
133.0664807914
 31
0.0
  0
LINE
  5
7C
330
40
100
AcDbEntity
  8
0002793
  6
Continuous
 62
     7
100
AcDbLine
 10
93.1745915781
 20
132.6017129675
 30
0.0
 11
93.1745915781
 21
133.1364997694
 31
0.0
  0
LINE
  5
7D
330
40
100
AcDbEntity
  8
0002793
  6
Continuous
 62
     7
100
AcDbLine
 10
90.3245915781
 20
99.4871927895
 30
0.0
 11
90.3245915781
 21
107.0603918857
 31
0.0
  0
ARC
  5
7E
330
40
100
AcDbEntity
  8
0002793
  6
Continuous
 62
     7
100
AcDbCircle
 10
91.9025769856
 20
159.3597659894
 30
0.0
 40
26.2540989632015
100
AcDbArc
 50
269.9768918961
 51
272.7770753659
  0
LINE
  5
7F
330
40
100
AcDbEntity
  8
0002793
  6
Continuous
 62
     7
100
AcDbLine
 10
93.3245915781
 20
133.2827037715
 30
0.0
 11
93.1745915781
 21
133.1364997694
 31
0.0
  0
ARC
  5
80
330
40
100
AcDbEntity
  8
0002793
  6
Continuous
 62
     7
100
AcDbCircle
 10
96.4580461551
 20
101.5837307302
 30
0.0
 40
5.032583708399554
100
AcDbArc
 50
190.7590979322
 51
204.8652887108
  0
ARC
  5
81
330
40
100
AcDbEntity
  8
0002793
  6
Continuous
 62
     7
100
AcDbCircle
 10
91.8926464458
 20
54.347891236
 30
0.0
 40
26.66722338194937
100
AcDbArc
 50
87.2446188536
 51
90.0014138858
  0
SPLINE
  5
82
330
40
100
AcDbEntity
  8
0002793
  6
Continuous
 62
     7
100
AcDbSpline
210
0.0
220
0.0
230
1.0
 70
     8
 71
     3
 72
    18
 73
    14
 74
     0
 42
0.0000000056279667
 43
0.0000000001
 12
1.0
 22
0.0
 32
0.0
 13
1.0
 23
0.0
 33
0.0
 40
0.0
 40
0.0
 40
0.0
 40
0.0
 40
0.2499999999999984
 40
0.2499999999999984
 40
0.3749999999999984
 40
0.3749999999999984
 40
0.4999999999999984
 40
0.4999999999999984
 40
0.6249999999999984
 40
0.6249999999999984
 40
0.7499999999999984
 40
0.7499999999999984
 40
1.0
 40
1.0
 40
1.0
 40
1.0
 10
93.17459157812429
 20
99.19035916452931
 30
0.0
 10
93.09716098737151
 20
99.07230681341896
 30
0.0
 10
93.00813178769768
 20
98.95846469743971
 30
0.0
 10
92.82512660511291
 20
98.83139716699064
 30
0.0
 10
92.75545394865932
 20
98.79762988444526
 30
0.0
 10
92.59845332499742
 20
98.77358192347519
 30
0.0
 10
92.51711482259992
 20
98.78678682929568
 30
0.0
 10
92.37328976874373
 20
98.8487551225474
 30
0.0
 10
92.31215973487163
 20
98.89378296822127
 30
0.0
 10
92.20322894783997
 20
98.99351550275011
 30
0.0
 10
92.1561293930406
 20
99.04788453286446
 30
0.0
 10
92.0263598599881
 20
99.2182170714667
 30
0.0
 10
91.95520732322957
 20
99.34157269702888
 30
0.0
 10
91.89198837969367
 20
99.46759860447858
 30
0.0
  0
LINE
  5
83
330
40
100
AcDbEntity
  8
0002793
  6
Continuous
 62
     7
100
AcDbLine
 10
93.3245915781
 20
98.8499443799
 30
0.0
 11
93.1745915781
 21
99.1903591645
 31
0.0
  0
LINE
  5
84
330
40
100
AcDbEntity
  8
0002793
  6
Continuous
 62
     7
100
AcDbLine
 10
93.1745915781
 20
80.9842840019
 30
0.0
 11
93.3245915781
 21
80.8380799998
 31
0.0
  0
LINE
  5
85
330
40
100
AcDbEntity
  8
0002793
  6
Continuous
 62
     7
100
AcDbLine
 10
93.4745915781
 20
136.4067122292
 30
0.0
 11
93.4745915781
 21
133.9853918857
 31
0.0
  0
SPLINE
  5
86
330
40
100
AcDbEntity
  8
0002793
  6
Continuous
 62
     7
100
AcDbSpline
210
0.0
220
0.0
230
1.0
 70
     8
 71
     3
 72
    12
 73
     8
 74
     0
 42
0.0000000090791665
 43
0.0000000001
 12
1.0
 22
0.0
 32
0.0
 13
1.0
 23
0.0
 33
0.0
 40
0.0
 40
0.0
 40
0.0
 40
0.0
 40
0.2499999999999984
 40
0.2499999999999984
 40
0.4999999999999968
 40
0.4999999999999968
 40
1.0
 40
1.0
 40
1.0
 40
1.0
 10
106.2662267984595
 20
95.70717693189754
 30
0.0
 10
106.1707719671389
 20
95.70717693189751
 30
0.0
 10
106.0814017768396
 20
95.66810657731062
 30
0.0
 10
105.93344666479
 20
95.55487583896071
 30
0.0
 10
105.8750087282196
 20
95.48404728116465
 30
0.0
 10
105.7259403189577
 20
95.25643780452432
 30
0.0
 10
105.6630034612095
 20
95.08813446824804
 30
0.0
 10
105.6167077456211
 20
94.91571238860207
 30
0.0
  0
LINE
  5
87
330
40
100
AcDbEntity
  8
0002793
  6
Continuous
 62
     7
100
AcDbLine
 10
110.6829563578
 20
95.7071769319
 30
0.0
 11
106.2662267985
 21
95.7071769319
 31
0.0
  0
SPLINE
  5
88
330
40
100
AcDbEntity
  8
0002793
  6
Continuous
 62
     7
100
AcDbSpline
210
0.0
220
0.0
230
1.0
 70
     8
 71
     3
 72
    12
 73
     8
 74
     0
 42
0.0000000090798599
 43
0.0000000001
 12
1.0
 22
0.0
 32
0.0
 13
1.0
 23
0.0
 33
0.0
 40
0.0
 40
0.0
 40
0.0
 40
0.0
 40
0.4999999999999996
 40
0.4999999999999996
 40
0.7499999999999998
 40
0.7499999999999998
 40
1.0
 40
1.0
 40
1.0
 40
1.0
 10
111.3324754105984
 20
94.91571238860215
 30
0.0
 10
111.2861978447521
 20
95.08806687200735
 30
0.0
 10
111.2233585495611
 20
95.25627521608065
 30
0.0
 10
111.0740772328713
 20
95.48418863848195
 30
0.0
 10
111.0146559857849
 20
95.55568555276932
 30
0.0
 10
110.8690014351157
 20
95.66719004869239
 30
0.0
 10
110.7782534261401
 20
95.70717693189809
 30
0.0
 10
110.6829563577601
 20
95.70717693189751
 30
0.0
  0
ARC
  5
89
330
40
100
AcDbEntity
  8
0002793
  6
Continuous
 62
     7
100
AcDbCircle
 10
72.4745915781
 20
107.0603918857
 30
0.0
 40
4.574999999999998
100
AcDbArc
 50
0.0
 51
180.0
  0
LINE
  5
8A
330
40
100
AcDbEntity
  8
0002793
  6
Continuous
 62
     7
100
AcDbLine
 10
48.4745915781
 20
125.1760285267
 30
0.0
 11
48.4745915781
 21
107.0603918857
 31
0.0
  0
LINE
  5
8B
330
40
100
AcDbEntity
  8
0002793
  6
Continuous
 62
     7
100
AcDbLine
 10
48.4745915781
 20
83.0693806311
 30
0.0
 11
50.6009270851
 21
81.7698179629
 31
0.0
  0
LINE
  5
8C
330
40
100
AcDbEntity
  8
0002793
  6
Continuous
 62
     7
100
AcDbLine
 10
48.4745915781
 20
131.0514031403
 30
0.0
 11
50.6009270851
 21
132.3509658085
 31
0.0
  0
LINE
  5
8D
330
40
100
AcDbEntity
  8
0002793
  6
Continuous
 62
     7
100
AcDbLine
 10
133.5245915781
 20
107.0603918857
 30
0.0
 11
133.5245915781
 21
80.0603918857
 31
0.0
  0
LINE
  5
8E
330
40
100
AcDbEntity
  8
0002793
  6
Continuous
 62
     7
100
AcDbLine
 10
214.9745915781
 20
96.2603918857
 30
0.0
 11
214.9745915781
 21
107.0603918857
 31
0.0
  0
LINE
  5
8F
330
40
100
AcDbEntity
  8
0002793
  6
Continuous
 62
     7
100
AcDbLine
 10
213.7745915781
 20
107.0603918857
 30
0.0
 11
213.7745915781
 21
95.0603918857
 31
0.0
  0
LINE
  5
90
330
40
100
AcDbEntity
  8
0002793
  6
Continuous
 62
     7
100
AcDbLine
 10
214.9745915781
 20
115.6103918857
 30
0.0
 11
214.9745915781
 21
113.0603918857
 31
0.0
  0
LINE
  5
91
330
40
100
AcDbEntity
  8
0002793
  6
Continuous
 62
     7
100
AcDbLine
 10
208.9745915781
 20
113.3603918857
 30
0.0
 11
208.9745915781
 21
113.0603918857
 31
0.0
  0
LINE
  5
92
330
40
100
AcDbEntity
  8
0002793
  6
Continuous
 62
     7
100
AcDbLine
 10
198.4745915781
 20
120.5603918857
 30
0.0
 11
198.4745915781
 21
118.9895714924
 31
0.0
  0
LINE
  5
93
330
40
100
AcDbEntity
  8
0002793
  6
Continuous
 62
     7
100
AcDbLine
 10
201.3248801464
 20
107.0603918857
 30
0.0
 11
201.3248801464
 21
95.0603918857
 31
0.0
  0
LINE
  5
94
330
40
100
AcDbEntity
  8
0002793
  6
Continuous
 62
     7
100
AcDbLine
 10
200.2052649041
 20
107.0603918857
 30
0.0
 11
200.2052649041
 21
95.3603918857
 31
0.0
  0
LINE
  5
95
330
40
100
AcDbEntity
  8
0002793
  6
Continuous
 62
     7
100
AcDbLine
 10
180.7745915781
 20
128.3896418857
 30
0.0
 11
180.7745915781
 21
124.7311418857
 31
0.0
  0
LINE
  5
96
330
40
100
AcDbEntity
  8
0002793
  6
Continuous
 62
     7
100
AcDbLine
 10
185.2745915781
 20
128.3896418857
 30
0.0
 11
185.2745915781
 21
124.7311418857
 31
0.0
  0
LINE
  5
97
330
40
100
AcDbEntity
  8
0002793
  6
Continuous
 62
     7
100
AcDbLine
 10
192.4745915781
 20
124.1161418857
 30
0.0
 11
192.4745915781
 21
124.3103918857
 31
0.0
  0
LINE
  5
98
330
40
100
AcDbEntity
  8
0002793
  6
Continuous
 62
     7
100
AcDbLine
 10
192.4745915781
 20
128.8103918857
 30
0.0
 11
192.4745915781
 21
129.0046418857
 31
0.0
  0
LINE
  5
99
330
40
100
AcDbEntity
  8
0002793
  6
Continuous
 62
     7
100
AcDbLine
 10
115.0518554609
 20
107.0603918857
 30
0.0
 11
115.0518554609
 21
112.0456418857
 31
0.0
  0
LINE
  5
9A
330
40
100
AcDbEntity
  8
0002793
  6
Continuous
 62
     7
100
AcDbLine
 10
213.7745915781
 20
119.0603918857
 30
0.0
 11
201.3248801464
 21
119.0603918857
 31
0.0
  0
LINE
  5
9B
330
40
100
AcDbEntity
  8
0002793
  6
Continuous
 62
     7
100
AcDbLine
 10
200.2052649041
 20
118.7603918857
 30
0.0
 11
201.3248801464
 21
119.0603918857
 31
0.0
  0
LINE
  5
9C
330
40
100
AcDbEntity
  8
0002793
  6
Continuous
 62
     7
100
AcDbLine
 10
199.0745915781
 20
118.7603918857
 30
0.0
 11
200.2052649041
 21
118.7603918857
 31
0.0
  0
LINE
  5
9D
330
40
100
AcDbEntity
  8
0002793
  6
Continuous
 62
     7
100
AcDbLine
 10
214.9745915781
 20
117.8603918857
 30
0.0
 11
213.7745915781
 21
119.0603918857
 31
0.0
  0
ARC
  5
9E
330
40
100
AcDbEntity
  8
0002793
  6
Continuous
 62
     7
100
AcDbCircle
 10
199.0745915781
 20
119.6603918857
 30
0.0
 40
0.8999999999999783
100
AcDbArc
 50
172.0
 51
270.0
  0
LINE
  5
9F
330
40
100
AcDbEntity
  8
0002793
  6
Continuous
 62
     7
100
AcDbLine
 10
214.9745915781
 20
115.6103918857
 30
0.0
 11
214.9745915781
 21
117.8603918857
 31
0.0
  0
LINE
  5
A0
330
40
100
AcDbEntity
  8
0002793
  6
Continuous
 62
     7
100
AcDbLine
 10
198.2922335141
 20
120.5603918857
 30
0.0
 11
198.1833503162
 21
119.7856476765
 31
0.0
  0
ARC
  5
A1
330
40
100
AcDbEntity
  8
0002793
  6
Continuous
 62
     7
100
AcDbCircle
 10
212.7245915781
 20
115.6103918857
 30
0.0
 40
2.25
100
AcDbArc
 50
270.0
 51
0.0
  0
LINE
  5
A2
330
40
100
AcDbEntity
  8
0002793
  6
Continuous
 62
     7
100
AcDbLine
 10
198.2922335141
 20
120.5603918857
 30
0.0
 11
197.7245915781
 21
120.5603918857
 31
0.0
  0
LINE
  5
A3
330
40
100
AcDbEntity
  8
0002793
  6
Continuous
 62
     7
100
AcDbLine
 10
197.7245915781
 20
120.5603918857
 30
0.0
 11
197.7245915781
 21
121.5353918857
 31
0.0
  0
LINE
  5
A4
330
40
100
AcDbEntity
  8
0002793
  6
Continuous
 62
     7
100
AcDbLine
 10
197.7245915781
 20
121.5353918857
 30
0.0
 11
197.1995915781
 21
122.0603918857
 31
0.0
  0
LINE
  5
A5
330
40
100
AcDbEntity
  8
0002793
  6
Continuous
 62
     7
100
AcDbLine
 10
212.7245915781
 20
113.3603918857
 30
0.0
 11
208.9745915781
 21
113.3603918857
 31
0.0
  0
LINE
  5
A6
330
40
100
AcDbEntity
  8
0002793
  6
Continuous
 62
     7
100
AcDbLine
 10
197.1995915781
 20
122.0603918857
 30
0.0
 11
192.4745915781
 21
122.0603918857
 31
0.0
  0
LINE
  5
A7
330
40
100
AcDbEntity
  8
0002793
  6
Continuous
 62
     7
100
AcDbLine
 10
192.4745915781
 20
122.0603918857
 30
0.0
 11
192.4745915781
 21
124.1161418857
 31
0.0
  0
LINE
  5
A8
330
40
100
AcDbEntity
  8
0002793
  6
Continuous
 62
     7
100
AcDbLine
 10
192.4745915781
 20
124.1161418857
 30
0.0
 11
192.2803415781
 21
124.3103918857
 31
0.0
  0
LINE
  5
A9
330
40
100
AcDbEntity
  8
0002793
  6
Continuous
 62
     7
100
AcDbLine
 10
208.9745915781
 20
113.3603918857
 30
0.0
 11
208.7943333924
 21
113.0603918857
 31
0.0
  0
LINE
  5
AA
330
40
100
AcDbEntity
  8
0002793
  6
Continuous
 62
     7
100
AcDbLine
 10
186.7438415781
 20
124.7161418857
 30
0.0
 11
185.2745915781
 21
124.7161418857
 31
0.0
  0
LINE
  5
AB
330
40
100
AcDbEntity
  8
0002793
  6
Continuous
 62
     7
100
AcDbLine
 10
185.2745915781
 20
124.7161418857
 30
0.0
 11
185.2745915781
 21
124.7311418857
 31
0.0
  0
LINE
  5
AC
330
40
100
AcDbEntity
  8
0002793
  6
Continuous
 62
     7
100
AcDbLine
 10
185.2745915781
 20
124.7311418857
 30
0.0
 11
180.7745915781
 21
124.7311418857
 31
0.0
  0
LINE
  5
AD
330
40
100
AcDbEntity
  8
0002793
  6
Continuous
 62
     7
100
AcDbLine
 10
180.7745915781
 20
124.7311418857
 30
0.0
 11
179.6754672908
 21
126.5603918857
 31
0.0
  0
LINE
  5
AE
330
40
100
AcDbEntity
  8
0002793
  6
Continuous
 62
     7
100
AcDbLine
 10
198.4746853281
 20
112.0456418857
 30
0.0
 11
184.9745915781
 21
112.0456418857
 31
0.0
  0
LINE
  5
AF
330
40
100
AcDbEntity
  8
0002793
  6
Continuous
 62
     7
100
AcDbLine
 10
184.9745915781
 20
112.0456418857
 30
0.0
 11
115.0518554609
 21
112.0456418857
 31
0.0
  0
LINE
  5
B0
330
40
100
AcDbEntity
  8
0002793
  6
Continuous
 62
     7
100
AcDbLine
 10
115.0518554609
 20
112.0456418857
 30
0.0
 11
112.2245915781
 21
117.8423918857
 31
0.0
  0
LINE
  5
B1
330
40
100
AcDbEntity
  8
0002793
  6
Continuous
 62
     7
100
AcDbLine
 10
179.6754672908
 20
126.5603918857
 30
0.0
 11
180.7745915781
 21
128.3896418857
 31
0.0
  0
LINE
  5
B2
330
40
100
AcDbEntity
  8
0002793
  6
Continuous
 62
     7
100
AcDbLine
 10
112.2245915781
 20
117.8423918857
 30
0.0
 11
103.9745915781
 21
117.8423918857
 31
0.0
  0
LINE
  5
B3
330
40
100
AcDbEntity
  8
0002793
  6
Continuous
 62
     7
100
AcDbLine
 10
103.9745915781
 20
117.8423918857
 30
0.0
 11
79.0943193571
 21
117.8423918857
 31
0.0
  0
LINE
  5
B4
330
40
100
AcDbEntity
  8
0002793
  6
Continuous
 62
     7
100
AcDbLine
 10
180.7745915781
 20
128.3896418857
 30
0.0
 11
185.2745915781
 21
128.3896418857
 31
0.0
  0
LINE
  5
B5
330
40
100
AcDbEntity
  8
0002793
  6
Continuous
 62
     7
100
AcDbLine
 10
79.0943193571
 20
117.8423918857
 30
0.0
 11
78.4745915781
 21
118.9157918857
 31
0.0
  0
LINE
  5
B6
330
40
100
AcDbEntity
  8
0002793
  6
Continuous
 62
     7
100
AcDbLine
 10
78.4745915781
 20
118.9157918857
 30
0.0
 11
78.4745915781
 21
122.0603918857
 31
0.0
  0
ARC
  5
B7
330
40
100
AcDbEntity
  8
0002793
  6
Continuous
 62
     7
100
AcDbCircle
 10
77.7245915781
 20
122.0603918857
 30
0.0
 40
0.7500000000000007
100
AcDbArc
 50
0.0
 51
90.0
  0
LINE
  5
B8
330
40
100
AcDbEntity
  8
0002793
  6
Continuous
 62
     7
100
AcDbLine
 10
77.7245915781
 20
122.8103918857
 30
0.0
 11
62.8745915781
 21
122.8103918857
 31
0.0
  0
LINE
  5
B9
330
40
100
AcDbEntity
  8
0002793
  6
Continuous
 62
     7
100
AcDbLine
 10
62.8745915781
 20
122.8103918857
 30
0.0
 11
61.2836013204
 21
124.4013821433
 31
0.0
  0
ARC
  5
BA
330
40
100
AcDbEntity
  8
0002793
  6
Continuous
 62
     7
100
AcDbCircle
 10
59.6926110628
 20
122.8103918857
 30
0.0
 40
2.25
100
AcDbArc
 50
45.0
 51
90.0
  0
LINE
  5
BB
330
40
100
AcDbEntity
  8
0002793
  6
Continuous
 62
     7
100
AcDbLine
 10
185.2745915781
 20
128.3896418857
 30
0.0
 11
185.2745915781
 21
128.4046418857
 31
0.0
  0
LINE
  5
BC
330
40
100
AcDbEntity
  8
0002793
  6
Continuous
 62
     7
100
AcDbLine
 10
59.6926110628
 20
125.0603918857
 30
0.0
 11
58.2245915781
 21
125.0603918857
 31
0.0
  0
ARC
  5
BD
330
40
100
AcDbEntity
  8
0002793
  6
Continuous
 62
     7
100
AcDbCircle
 10
58.2245915781
 20
122.8103918857
 30
0.0
 40
2.25
100
AcDbArc
 50
90.0
 51
168.1896851042
  0
LINE
  5
BE
330
40
100
AcDbEntity
  8
0002793
  6
Continuous
 62
     7
100
AcDbLine
 10
56.0222228233
 20
123.2709044998
 30
0.0
 11
55.2245915781
 21
122.8103918857
 31
0.0
  0
LINE
  5
BF
330
40
100
AcDbEntity
  8
0002793
  6
Continuous
 62
     7
100
AcDbLine
 10
55.2245915781
 20
122.8103918857
 30
0.0
 11
53.7245915781
 21
122.8103918857
 31
0.0
  0
LINE
  5
C0
330
40
100
AcDbEntity
  8
0002793
  6
Continuous
 62
     7
100
AcDbLine
 10
185.2745915781
 20
128.4046418857
 30
0.0
 11
186.7438415781
 21
128.4046418857
 31
0.0
  0
LINE
  5
C1
330
40
100
AcDbEntity
  8
0002793
  6
Continuous
 62
     7
100
AcDbLine
 10
192.2803415781
 20
128.8103918857
 30
0.0
 11
192.4745915781
 21
129.0046418857
 31
0.0
  0
LINE
  5
C2
330
40
100
AcDbEntity
  8
0002793
  6
Continuous
 62
     7
100
AcDbLine
 10
53.7245915781
 20
122.8103918857
 30
0.0
 11
49.9922487266
 21
123.8104701386
 31
0.0
  0
ARC
  5
C3
330
40
100
AcDbEntity
  8
0002793
  6
Continuous
 62
     7
100
AcDbCircle
 10
50.5745915781
 20
125.9838032477
 30
0.0
 40
2.25
100
AcDbArc
 50
201.0394697813
 51
255.0
  0
LINE
  5
C4
330
40
100
AcDbEntity
  8
0002793
  6
Continuous
 62
     7
100
AcDbLine
 10
192.4745915781
 20
129.0046418857
 30
0.0
 11
192.4745915781
 21
131.0603918857
 31
0.0
  0
LINE
  5
C5
330
40
100
AcDbEntity
  8
0002793
  6
Continuous
 62
     7
100
AcDbLine
 10
48.4745915781
 20
130.4827732634
 30
0.0
 11
48.4745915781
 21
125.1760285267
 31
0.0
  0
SPLINE
  5
C6
330
40
100
AcDbEntity
  8
0002793
  6
Continuous
 62
     7
100
AcDbSpline
210
0.0
220
0.0
230
1.0
 70
     8
 71
     3
 72
     8
 73
     4
 74
     0
 42
0.0000000039953487
 43
0.0000000001
 12
1.0
 22
0.0
 32
0.0
 13
1.0
 23
0.0
 33
0.0
 40
0.0
 40
0.0
 40
0.0
 40
0.0
 40
1.0
 40
1.0
 40
1.0
 40
1.0
 10
50.60092708508004
 20
131.803098176843
 30
0.0
 10
49.89203474024053
 20
131.3631738639178
 30
0.0
 10
49.18325112793888
 20
130.9230721082745
 30
0.0
 10
48.47459157810977
 20
130.4827732634379
 30
0.0
  0
LINE
  5
C7
330
40
100
AcDbEntity
  8
0002793
  6
Continuous
 62
     7
100
AcDbLine
 10
192.4745915781
 20
131.0603918857
 30
0.0
 11
197.1995915781
 21
131.0603918857
 31
0.0
  0
LINE
  5
C8
330
40
100
AcDbEntity
  8
0002793
  6
Continuous
 62
     7
100
AcDbLine
 10
197.1995915781
 20
131.0603918857
 30
0.0
 11
197.7245915781
 21
131.5853918857
 31
0.0
  0
SPLINE
  5
C9
330
40
100
AcDbEntity
  8
0002793
  6
Continuous
 62
     7
100
AcDbSpline
210
0.0
220
0.0
230
1.0
 70
     8
 71
     3
 72
    11
 73
     7
 74
     0
 42
0.000000000253386
 43
0.0000000001
 12
1.0
 22
0.0
 32
0.0
 13
1.0
 23
0.0
 33
0.0
 40
0.0
 40
0.0
 40
0.0
 40
0.0
 40
0.1228350386792756
 40
0.1228350386792756
 40
0.1228350386792756
 40
1.0
 40
1.0
 40
1.0
 40
1.0
 10
50.60092708508004
 20
131.803098176843
 30
0.0
 10
52.21632096869185
 20
131.8441080967021
 30
0.0
 10
53.83171490638119
 20
131.885115886483
 30
0.0
 10
55.44710889758307
 20
131.9261215681149
 30
0.0
 10
66.98263673154963
 20
132.2189431239652
 30
0.0
 10
78.5181672932813
 20
132.5116572381788
 30
0.0
 10
90.05370038836091
 20
132.8042714622204
 30
0.0
  0
LINE
  5
CA
330
40
100
AcDbEntity
  8
0002793
  6
Continuous
 62
     7
100
AcDbLine
 10
90.0537003884
 20
132.8042714622
 30
0.0
 11
90.3245915781
 21
132.5294053348
 31
0.0
  0
LINE
  5
CB
330
40
100
AcDbEntity
  8
0002793
  6
Continuous
 62
     7
100
AcDbLine
 10
90.3245915781
 20
132.5294053348
 30
0.0
 11
93.1745915781
 21
132.6017129675
 31
0.0
  0
LINE
  5
CC
330
40
100
AcDbEntity
  8
0002793
  6
Continuous
 62
     7
100
AcDbLine
 10
93.1745915781
 20
132.6017129675
 30
0.0
 11
93.3245915781
 21
132.7539126657
 31
0.0
  0
LINE
  5
CD
330
40
100
AcDbEntity
  8
0002793
  6
Continuous
 62
     7
100
AcDbLine
 10
197.7245915781
 20
131.5853918857
 30
0.0
 11
197.7245915781
 21
132.5603918857
 31
0.0
  0
LINE
  5
CE
330
40
100
AcDbEntity
  8
0002793
  6
Continuous
 62
     7
100
AcDbLine
 10
93.3245915781
 20
133.88635378
 30
0.0
 11
93.3245915781
 21
132.7539126657
 31
0.0
  0
ARC
  5
CF
330
40
100
AcDbEntity
  8
0002793
  6
Continuous
 62
     7
100
AcDbCircle
 10
92.5745915781
 20
135.1853918857
 30
0.0
 40
1.499999999999999
100
AcDbArc
 50
300.0
 51
45.0
  0
LINE
  5
D0
330
40
100
AcDbEntity
  8
0002793
  6
Continuous
 62
     7
100
AcDbLine
 10
93.6352517499
 20
136.2460520574
 30
0.0
 11
93.4745915781
 21
136.4067122292
 31
0.0
  0
LINE
  5
D1
330
40
100
AcDbEntity
  8
0002793
  6
Continuous
 62
     7
100
AcDbLine
 10
93.4745915781
 20
144.1103918857
 30
0.0
 11
93.4745915781
 21
136.4067122292
 31
0.0
  0
LINE
  5
D2
330
40
100
AcDbEntity
  8
0002793
  6
Continuous
 62
     7
100
AcDbLine
 10
93.9245915781
 20
144.5603918857
 30
0.0
 11
93.4745915781
 21
144.1103918857
 31
0.0
  0
LINE
  5
D3
330
40
100
AcDbEntity
  8
0002793
  6
Continuous
 62
     7
100
AcDbLine
 10
197.7245915781
 20
132.5603918857
 30
0.0
 11
198.4745915781
 21
132.5603918857
 31
0.0
  0
LINE
  5
D4
330
40
100
AcDbEntity
  8
0002793
  6
Continuous
 62
     7
100
AcDbLine
 10
198.4745915781
 20
133.3103918857
 30
0.0
 11
198.4745915781
 21
132.5603918857
 31
0.0
  0
LINE
  5
D5
330
40
100
AcDbEntity
  8
0002793
  6
Continuous
 62
     7
100
AcDbLine
 10
123.0245915781
 20
144.5603918857
 30
0.0
 11
93.9245915781
 21
144.5603918857
 31
0.0
  0
LINE
  5
D6
330
40
100
AcDbEntity
  8
0002793
  6
Continuous
 62
     7
100
AcDbLine
 10
133.5245915781
 20
134.0603918857
 30
0.0
 11
123.0245915781
 21
144.5603918857
 31
0.0
  0
LINE
  5
D7
330
40
100
AcDbEntity
  8
0002793
  6
Continuous
 62
     7
100
AcDbLine
 10
133.5245915781
 20
134.0603918857
 30
0.0
 11
197.7245915781
 21
134.0603918857
 31
0.0
  0
ARC
  5
D8
330
40
100
AcDbEntity
  8
0002793
  6
Continuous
 62
     7
100
AcDbCircle
 10
92.5745915781
 20
78.9353918857
 30
0.0
 40
1.499999999999999
100
AcDbArc
 50
53.1301023542
 51
60.0
  0
LINE
  5
D9
330
40
100
AcDbEntity
  8
0002793
  6
Continuous
 62
     7
100
AcDbLine
 10
123.0245915781
 20
69.5603918857
 30
0.0
 11
133.5245915781
 21
80.0603918857
 31
0.0
  0
LINE
  5
DA
330
40
100
AcDbEntity
  8
0002793
  6
Continuous
 62
     7
100
AcDbLine
 10
93.4745915781
 20
70.0103918857
 30
0.0
 11
93.9245915781
 21
69.5603918857
 31
0.0
  0
LINE
  5
DB
330
40
100
AcDbEntity
  8
0002793
  6
Continuous
 62
     7
100
AcDbLine
 10
133.5245915781
 20
80.0603918857
 30
0.0
 11
197.7245915781
 21
80.0603918857
 31
0.0
  0
ARC
  5
DC
330
40
100
AcDbEntity
  8
0002793
  6
Continuous
 62
     7
100
AcDbCircle
 10
199.0745915781
 20
94.4603918857
 30
0.0
 40
0.900000000000005
100
AcDbArc
 50
90.0
 51
131.8103148958
  0
LINE
  5
DD
330
40
100
AcDbEntity
  8
0002793
  6
Continuous
 62
     7
100
AcDbLine
 10
200.2052649041
 20
95.3603918857
 30
0.0
 11
201.3248801464
 21
95.0603918857
 31
0.0
  0
LINE
  5
DE
330
40
100
AcDbEntity
  8
0002793
  6
Continuous
 62
     7
100
AcDbLine
 10
199.0745915781
 20
95.3603918857
 30
0.0
 11
200.2052649041
 21
95.3603918857
 31
0.0
  0
LINE
  5
DF
330
40
100
AcDbEntity
  8
0002793
  6
Continuous
 62
     7
100
AcDbLine
 10
213.7745915781
 20
95.0603918857
 30
0.0
 11
214.9745915781
 21
96.2603918857
 31
0.0
  0
LINE
  5
E0
330
40
100
AcDbEntity
  8
0002793
  6
Continuous
 62
     7
100
AcDbLine
 10
201.3248801464
 20
95.0603918857
 30
0.0
 11
213.7745915781
 21
95.0603918857
 31
0.0
  0
LINE
  5
E1
330
40
100
AcDbEntity
  8
0002793
  6
Continuous
 62
     7
100
AcDbLine
 10
197.7245915781
 20
80.0603918857
 30
0.0
 11
198.4745915781
 21
80.8103918857
 31
0.0
  0
LINE
  5
E2
330
40
100
AcDbEntity
  8
0002793
  6
Continuous
 62
     7
100
AcDbLine
 10
93.9245915781
 20
69.5603918857
 30
0.0
 11
123.0245915781
 21
69.5603918857
 31
0.0
  0
LINE
  5
E3
330
40
100
AcDbEntity
  8
0002793
  6
Continuous
 62
     7
100
AcDbLine
 10
78.4745915781
 20
119.0603918857
 30
0.0
 11
103.9745915781
 21
119.0603918857
 31
0.0
  0
LINE
  5
E4
330
40
100
AcDbEntity
  8
0002793
  6
Continuous
 62
     7
100
AcDbLine
 10
103.9745915781
 20
107.0603918857
 30
0.0
 11
103.9745915781
 21
119.0603918857
 31
0.0
  0
LINE
  5
E5
330
40
100
AcDbEntity
  8
0002793
  6
Continuous
 62
     7
100
AcDbLine
 10
208.7943333924
 20
113.0603918857
 30
0.0
 11
184.9745915781
 21
113.0603918857
 31
0.0
  0
LINE
  5
E6
330
40
100
AcDbEntity
  8
0002793
  6
Continuous
 62
     7
100
AcDbLine
 10
184.9745915781
 20
113.0603918857
 30
0.0
 11
184.9745915781
 21
107.0603918857
 31
0.0
  0
LINE
  5
E7
330
40
100
AcDbEntity
  8
0002793
  6
Continuous
 62
     7
100
AcDbLine
 10
185.2745915781
 20
128.8103918857
 30
0.0
 11
192.2803415781
 21
128.8103918857
 31
0.0
  0
LINE
  5
E8
330
40
100
AcDbEntity
  8
0002793
  6
Continuous
 62
     7
100
AcDbLine
 10
185.2745915781
 20
124.3103918857
 30
0.0
 11
192.2803415781
 21
124.3103918857
 31
0.0
  0
ARC
  5
EA
330
40
100
AcDbEntity
  8
0003464
  6
Continuous
 62
     7
100
AcDbCircle
 10
228.7231197155
 20
118.8353918857
 30
0.0
 40
0.599999999999999
100
AcDbArc
 50
90.0
 51
135.0
  0
LINE
  5
EB
330
40
100
AcDbEntity
  8
0003464
  6
Continuous
 62
     7
100
AcDbLine
 10
229.6745915781
 20
107.0603918857
 30
0.0
 11
229.6745915781
 21
119.4353918857
 31
0.0
  0
LINE
  5
EC
330
40
100
AcDbEntity
  8
0003464
  6
Continuous
 62
     7
100
AcDbLine
 10
229.9745915781
 20
119.7353918857
 30
0.0
 11
229.9745915781
 21
107.0603918857
 31
0.0
  0
LINE
  5
ED
330
40
100
AcDbEntity
  8
0003464
  6
Continuous
 62
     7
100
AcDbLine
 10
220.9745915781
 20
113.0296390448
 30
0.0
 11
220.9745915781
 21
113.7353918857
 31
0.0
  0
LINE
  5
EE
330
40
100
AcDbEntity
  8
0003464
  6
Continuous
 62
     7
100
AcDbLine
 10
221.7245915781
 20
92.0603918857
 30
0.0
 11
221.7245915781
 21
107.0603918857
 31
0.0
  0
LINE
  5
EF
330
40
100
AcDbEntity
  8
0003464
  6
Continuous
 62
     7
100
AcDbLine
 10
220.9745915781
 20
107.0603918857
 30
0.0
 11
220.9745915781
 21
92.8103918857
 31
0.0
  0
LINE
  5
F0
330
40
100
AcDbEntity
  8
0003464
  6
Continuous
 62
     7
100
AcDbLine
 10
229.9745915781
 20
93.5603918857
 30
0.0
 11
229.9745915781
 21
107.0603918857
 31
0.0
  0
LINE
  5
F1
330
40
100
AcDbEntity
  8
0003464
  6
Continuous
 62
     7
100
AcDbLine
 10
222.4745915781
 20
113.4353918857
 30
0.0
 11
222.4745915781
 21
113.3497317139
 31
0.0
  0
LINE
  5
F2
330
40
100
AcDbEntity
  8
0003464
  6
Continuous
 62
     7
100
AcDbLine
 10
221.7245915781
 20
122.0603918857
 30
0.0
 11
220.9745915781
 21
121.3103918857
 31
0.0
  0
LINE
  5
F3
330
40
100
AcDbEntity
  8
0003464
  6
Continuous
 62
     7
100
AcDbLine
 10
220.9745915781
 20
121.3103918857
 30
0.0
 11
220.9745915781
 21
113.7353918857
 31
0.0
  0
LINE
  5
F4
330
40
100
AcDbEntity
  8
0003464
  6
Continuous
 62
     7
100
AcDbLine
 10
228.4745915781
 20
122.0603918857
 30
0.0
 11
221.7245915781
 21
122.0603918857
 31
0.0
  0
ARC
  5
F5
330
40
100
AcDbEntity
  8
0003464
  6
Continuous
 62
     7
100
AcDbCircle
 10
228.4745915781
 20
120.5603918857
 30
0.0
 40
1.500000000000001
100
AcDbArc
 50
0.0
 51
90.0
  0
LINE
  5
F6
330
40
100
AcDbEntity
  8
0003464
  6
Continuous
 62
     7
100
AcDbLine
 10
220.9745915781
 20
113.7353918857
 30
0.0
 11
221.2745915781
 21
113.4353918857
 31
0.0
  0
LINE
  5
F7
330
40
100
AcDbEntity
  8
0003464
  6
Continuous
 62
     7
100
AcDbLine
 10
229.9745915781
 20
120.5603918857
 30
0.0
 11
229.9745915781
 21
119.7353918857
 31
0.0
  0
LINE
  5
F8
330
40
100
AcDbEntity
  8
0003464
  6
Continuous
 62
     7
100
AcDbLine
 10
221.2745915781
 20
113.4353918857
 30
0.0
 11
222.4745915781
 21
113.4353918857
 31
0.0
  0
LINE
  5
F9
330
40
100
AcDbEntity
  8
0003464
  6
Continuous
 62
     7
100
AcDbLine
 10
229.6745915781
 20
119.4353918857
 30
0.0
 11
229.9745915781
 21
119.7353918857
 31
0.0
  0
LINE
  5
FA
330
40
100
AcDbEntity
  8
0003464
  6
Continuous
 62
     7
100
AcDbLine
 10
228.7231197155
 20
119.4353918857
 30
0.0
 11
229.6745915781
 21
119.4353918857
 31
0.0
  0
LINE
  5
FB
330
40
100
AcDbEntity
  8
0003464
  6
Continuous
 62
     7
100
AcDbLine
 10
222.4745915781
 20
113.4353918857
 30
0.0
 11
228.2988556468
 21
119.2596559544
 31
0.0
  0
LINE
  5
FC
330
40
100
AcDbEntity
  8
0003464
  6
Continuous
 62
     7
100
AcDbLine
 10
221.7245915781
 20
92.0603918857
 30
0.0
 11
228.4745915781
 21
92.0603918857
 31
0.0
  0
ARC
  5
FD
330
40
100
AcDbEntity
  8
0003464
  6
Continuous
 62
     7
100
AcDbCircle
 10
228.4745915781
 20
93.5603918857
 30
0.0
 40
1.500000000000001
100
AcDbArc
 50
270.0
 51
0.0
  0
LINE
  5
FE
330
40
100
AcDbEntity
  8
0003464
  6
Continuous
 62
     7
100
AcDbLine
 10
220.9745915781
 20
92.8103918857
 30
0.0
 11
221.7245915781
 21
92.0603918857
 31
0.0
  0
HATCH
  5
FF
330
40
100
AcDbEntity
  8
0003464
  6
Continuous
 62
     7
100
AcDbHatch
 10
0.0
 20
0.0
 30
0.0
210
0.0
220
0.0
230
1.0
  2
LINE
 70
     0
 71
     0
 91
        1
 92
        1
 93
       11
 72
     1
 10
221.7245915781098
 20
122.0603918856686
 11
220.9745915781098
 21
121.3103918856686
 72
     1
 10
220.9745915781098
 20
121.3103918856686
 11
220.9745915781098
 21
113.7353918856685
 72
     1
 10
220.9745915781098
 20
113.7353918856686
 11
221.2745915781098
 21
113.4353918856686
 72
     1
 10
221.2745915781098
 20
113.4353918856686
 11
222.4745915781098
 21
113.4353918856686
 72
     1
 10
222.4745915781098
 20
113.4353918856686
 11
228.2988556468217
 21
119.2596559543805
 72
     2
 10
228.7231197155336
 20
118.8353918856686
 40
0.6000000000000001
 50
224.9999999999943
 51
270.0
 73
     0
 72
     1
 10
228.7231197155336
 20
119.4353918856686
 11
229.6745915781098
 21
119.4353918856686
 72
     1
 10
229.6745915781098
 20
119.4353918856686
 11
229.9745915781098
 21
119.7353918856686
 72
     1
 10
229.9745915781098
 20
119.7353918856686
 11
229.9745915781097
 21
120.5603918856686
 72
     2
 10
228.4745915781097
 20
120.5603918856686
 40
1.5
 50
0.0
 51
90.0
 73
     1
 72
     1
 10
228.4745915781097
 20
122.0603918856686
 11
221.7245915781097
 21
122.0603918856686
 97
        0
 75
     0
 76
     1
 52
135.0
 41
2.0
 77
     0
 78
     1
 53
135.0
 43
0.0
 44
0.0
 45
-4.490128060534577
 46
-4.490128060534576
 79
     0
 98
        0
  0
LINE
  5
101
330
40
100
AcDbEntity
  8
0003381
  6
Continuous
 62
     7
100
AcDbLine
 10
194.3495915781
 20
128.9603918857
 30
0.0
 11
194.3495915781
 21
128.8103918857
 31
0.0
  0
LINE
  5
102
330
40
100
AcDbEntity
  8
0003381
  6
Continuous
 62
     7
100
AcDbLine
 10
194.3495915781
 20
124.3103918857
 30
0.0
 11
194.3495915781
 21
124.1603918857
 31
0.0
  0
LINE
  5
103
330
40
100
AcDbEntity
  8
0003381
  6
Continuous
 62
     7
100
AcDbLine
 10
194.1995915781
 20
124.0103918857
 30
0.0
 11
194.1995915781
 21
124.3103918857
 31
0.0
  0
LINE
  5
104
330
40
100
AcDbEntity
  8
0003381
  6
Continuous
 62
     7
100
AcDbLine
 10
194.1995915781
 20
128.8103918857
 30
0.0
 11
194.1995915781
 21
129.1103918857
 31
0.0
  0
LINE
  5
105
330
40
100
AcDbEntity
  8
0003381
  6
Continuous
 62
     7
100
AcDbLine
 10
201.2495915781
 20
124.1603918857
 30
0.0
 11
201.2495915781
 21
124.3103918857
 31
0.0
  0
LINE
  5
106
330
40
100
AcDbEntity
  8
0003381
  6
Continuous
 62
     7
100
AcDbLine
 10
201.2495915781
 20
128.8103918857
 30
0.0
 11
201.2495915781
 21
128.9603918857
 31
0.0
  0
LINE
  5
107
330
40
100
AcDbEntity
  8
0003381
  6
Continuous
 62
     7
100
AcDbLine
 10
205.7495915781
 20
122.4353918857
 30
0.0
 11
205.7495915781
 21
122.7353918857
 31
0.0
  0
LINE
  5
108
330
40
100
AcDbEntity
  8
0003381
  6
Continuous
 62
     7
100
AcDbLine
 10
205.7495915781
 20
130.3853918857
 30
0.0
 11
205.7495915781
 21
130.6853918857
 31
0.0
  0
LINE
  5
109
330
40
100
AcDbEntity
  8
0003381
  6
Continuous
 62
     7
100
AcDbLine
 10
205.8995915781
 20
130.8353918857
 30
0.0
 11
205.8995915781
 21
129.9353918857
 31
0.0
  0
LINE
  5
10A
330
40
100
AcDbEntity
  8
0003381
  6
Continuous
 62
     7
100
AcDbLine
 10
205.8995915781
 20
123.1853918857
 30
0.0
 11
205.8995915781
 21
122.2853918857
 31
0.0
  0
ARC
  5
10B
330
40
100
AcDbEntity
  8
0003381
  6
Continuous
 62
     7
100
AcDbCircle
 10
197.4245915781
 20
121.7603918857
 30
0.0
 40
0.3000000000000086
100
AcDbArc
 50
0.0
 51
90.0
  0
LINE
  5
10C
330
40
100
AcDbEntity
  8
0003381
  6
Continuous
 62
     7
100
AcDbLine
 10
197.4245915781
 20
122.0603918857
 30
0.0
 11
194.3495915781
 21
122.0603918857
 31
0.0
  0
LINE
  5
10D
330
40
100
AcDbEntity
  8
0003381
  6
Continuous
 62
     7
100
AcDbLine
 10
197.7245915781
 20
120.7103918857
 30
0.0
 11
197.7245915781
 21
121.7603918857
 31
0.0
  0
LINE
  5
10E
330
40
100
AcDbEntity
  8
0003381
  6
Continuous
 62
     7
100
AcDbLine
 10
194.1995915781
 20
122.2103918857
 30
0.0
 11
194.3495915781
 21
122.0603918857
 31
0.0
  0
LINE
  5
10F
330
40
100
AcDbEntity
  8
0003381
  6
Continuous
 62
     7
100
AcDbLine
 10
197.7245915781
 20
120.7103918857
 30
0.0
 11
197.8745915781
 21
120.5603918857
 31
0.0
  0
LINE
  5
110
330
40
100
AcDbEntity
  8
0003381
  6
Continuous
 62
     7
100
AcDbLine
 10
194.1995915781
 20
122.2103918857
 30
0.0
 11
194.1995915781
 21
124.0103918857
 31
0.0
  0
LINE
  5
111
330
40
100
AcDbEntity
  8
0003381
  6
Continuous
 62
     7
100
AcDbLine
 10
205.1495915781
 20
120.5603918857
 30
0.0
 11
197.8745915781
 21
120.5603918857
 31
0.0
  0
LINE
  5
112
330
40
100
AcDbEntity
  8
0003381
  6
Continuous
 62
     7
100
AcDbLine
 10
194.3495915781
 20
124.1603918857
 30
0.0
 11
194.1995915781
 21
124.0103918857
 31
0.0
  0
LINE
  5
113
330
40
100
AcDbEntity
  8
0003381
  6
Continuous
 62
     7
100
AcDbLine
 10
205.1495915781
 20
120.5603918857
 30
0.0
 11
205.8995915781
 21
121.3103918857
 31
0.0
  0
LINE
  5
114
330
40
100
AcDbEntity
  8
0003381
  6
Continuous
 62
     7
100
AcDbLine
 10
205.8995915781
 20
122.2853918857
 30
0.0
 11
205.8995915781
 21
121.3103918857
 31
0.0
  0
LINE
  5
115
330
40
100
AcDbEntity
  8
0003381
  6
Continuous
 62
     7
100
AcDbLine
 10
194.3495915781
 20
124.1603918857
 30
0.0
 11
201.2495915781
 21
124.1603918857
 31
0.0
  0
LINE
  5
116
330
40
100
AcDbEntity
  8
0003381
  6
Continuous
 62
     7
100
AcDbLine
 10
205.8995915781
 20
122.2853918857
 30
0.0
 11
205.7495915781
 21
122.4353918857
 31
0.0
  0
LINE
  5
117
330
40
100
AcDbEntity
  8
0003381
  6
Continuous
 62
     7
100
AcDbLine
 10
201.3995915781
 20
124.0103918857
 30
0.0
 11
201.2495915781
 21
124.1603918857
 31
0.0
  0
LINE
  5
118
330
40
100
AcDbEntity
  8
0003381
  6
Continuous
 62
     7
100
AcDbLine
 10
201.6995915781
 20
122.4353918857
 30
0.0
 11
205.7495915781
 21
122.4353918857
 31
0.0
  0
ARC
  5
119
330
40
100
AcDbEntity
  8
0003381
  6
Continuous
 62
     7
100
AcDbCircle
 10
197.4245915781
 20
131.3603918857
 30
0.0
 40
0.3000000000000034
100
AcDbArc
 50
270.0
 51
0.0
  0
LINE
  5
11A
330
40
100
AcDbEntity
  8
0003381
  6
Continuous
 62
     7
100
AcDbLine
 10
194.3495915781
 20
131.0603918857
 30
0.0
 11
197.4245915781
 21
131.0603918857
 31
0.0
  0
LINE
  5
11B
330
40
100
AcDbEntity
  8
0003381
  6
Continuous
 62
     7
100
AcDbLine
 10
197.7245915781
 20
131.3603918857
 30
0.0
 11
197.7245915781
 21
132.4103918857
 31
0.0
  0
LINE
  5
11C
330
40
100
AcDbEntity
  8
0003381
  6
Continuous
 62
     7
100
AcDbLine
 10
194.3495915781
 20
131.0603918857
 30
0.0
 11
194.1995915781
 21
130.9103918857
 31
0.0
  0
LINE
  5
11D
330
40
100
AcDbEntity
  8
0003381
  6
Continuous
 62
     7
100
AcDbLine
 10
197.8745915781
 20
132.5603918857
 30
0.0
 11
197.7245915781
 21
132.4103918857
 31
0.0
  0
LINE
  5
11E
330
40
100
AcDbEntity
  8
0003381
  6
Continuous
 62
     7
100
AcDbLine
 10
194.1995915781
 20
129.1103918857
 30
0.0
 11
194.1995915781
 21
130.9103918857
 31
0.0
  0
LINE
  5
11F
330
40
100
AcDbEntity
  8
0003381
  6
Continuous
 62
     7
100
AcDbLine
 10
197.8745915781
 20
132.5603918857
 30
0.0
 11
205.1495915781
 21
132.5603918857
 31
0.0
  0
LINE
  5
120
330
40
100
AcDbEntity
  8
0003381
  6
Continuous
 62
     7
100
AcDbLine
 10
194.1995915781
 20
129.1103918857
 30
0.0
 11
194.3495915781
 21
128.9603918857
 31
0.0
  0
LINE
  5
121
330
40
100
AcDbEntity
  8
0003381
  6
Continuous
 62
     7
100
AcDbLine
 10
205.8995915781
 20
131.8103918857
 30
0.0
 11
205.1495915781
 21
132.5603918857
 31
0.0
  0
LINE
  5
122
330
40
100
AcDbEntity
  8
0003381
  6
Continuous
 62
     7
100
AcDbLine
 10
205.8995915781
 20
131.8103918857
 30
0.0
 11
205.8995915781
 21
130.8353918857
 31
0.0
  0
LINE
  5
123
330
40
100
AcDbEntity
  8
0003381
  6
Continuous
 62
     7
100
AcDbLine
 10
201.2495915781
 20
128.9603918857
 30
0.0
 11
194.3495915781
 21
128.9603918857
 31
0.0
  0
LINE
  5
124
330
40
100
AcDbEntity
  8
0003381
  6
Continuous
 62
     7
100
AcDbLine
 10
205.7495915781
 20
130.6853918857
 30
0.0
 11
205.8995915781
 21
130.8353918857
 31
0.0
  0
LINE
  5
125
330
40
100
AcDbEntity
  8
0003381
  6
Continuous
 62
     7
100
AcDbLine
 10
201.2495915781
 20
128.9603918857
 30
0.0
 11
201.3995915781
 21
129.1103918857
 31
0.0
  0
LINE
  5
126
330
40
100
AcDbEntity
  8
0003381
  6
Continuous
 62
     7
100
AcDbLine
 10
205.7495915781
 20
130.6853918857
 30
0.0
 11
201.6995915781
 21
130.6853918857
 31
0.0
  0
HATCH
  5
127
330
40
100
AcDbEntity
  8
0003381
  6
Continuous
 62
     7
100
AcDbHatch
 10
0.0
 20
0.0
 30
0.0
210
0.0
220
0.0
230
1.0
  2
LINE
 70
     0
 71
     0
 91
        1
 92
        1
 93
       17
 72
     1
 10
197.4245915781098
 20
131.0603918856686
 11
194.3495915781098
 21
131.0603918856686
 72
     1
 10
194.3495915781098
 20
131.0603918856686
 11
194.1995915781098
 21
130.9103918856686
 72
     1
 10
194.1995915781098
 20
130.9103918856686
 11
194.1995915781098
 21
129.1103918856686
 72
     1
 10
194.1995915781098
 20
129.1103918856686
 11
194.3495915781098
 21
128.9603918856685
 72
     1
 10
194.3495915781098
 20
128.9603918856685
 11
201.2495915781098
 21
128.9603918856686
 72
     1
 10
201.2495915781099
 20
128.9603918856686
 11
201.3995915781098
 21
129.1103918856685
 72
     1
 10
201.3995915781098
 20
129.1103918856685
 11
201.3995915781098
 21
130.3853918856686
 72
     2
 10
201.6995915781098
 20
130.3853918856686
 40
0.3
 50
180.0
 51
270.0
 73
     0
 72
     1
 10
201.6995915781098
 20
130.6853918856685
 11
205.1495915781098
 21
130.6853918856686
 72
     1
 10
205.1495915781098
 20
130.6853918856686
 11
205.7495915781098
 21
130.6853918856686
 72
     1
 10
205.7495915781098
 20
130.6853918856686
 11
205.8995915781098
 21
130.8353918856685
 72
     1
 10
205.8995915781098
 20
130.8353918856686
 11
205.8995915781098
 21
131.8103918856686
 72
     1
 10
205.8995915781098
 20
131.8103918856686
 11
205.1495915781098
 21
132.5603918856686
 72
     1
 10
205.1495915781098
 20
132.5603918856686
 11
197.8745915781098
 21
132.5603918856686
 72
     1
 10
197.8745915781098
 20
132.5603918856686
 11
197.7245915781098
 21
132.4103918856686
 72
     1
 10
197.7245915781098
 20
132.4103918856686
 11
197.7245915781098
 21
131.3603918856686
 72
     2
 10
197.4245915781098
 20
131.3603918856685
 40
0.3
 50
0.0
 51
90.0
 73
     0
 97
        0
 75
     0
 76
     1
 52
45.0
 41
1.0
 77
     0
 78
     1
 53
45.0
 43
0.0
 44
0.0
 45
-2.245064030267288
 46
2.245064030267288
 79
     0
 98
        0
  0
HATCH
  5
128
330
40
100
AcDbEntity
  8
0003381
  6
Continuous
 62
     7
100
AcDbHatch
 10
0.0
 20
0.0
 30
0.0
210
0.0
220
0.0
230
1.0
  2
LINE
 70
     0
 71
     0
 91
        1
 92
        1
 93
       17
 72
     1
 10
197.7245915781098
 20
121.7603918856686
 11
197.7245915781098
 21
120.7103918856686
 72
     1
 10
197.7245915781098
 20
120.7103918856686
 11
197.8745915781098
 21
120.5603918856686
 72
     1
 10
197.8745915781098
 20
120.5603918856686
 11
205.1495915781098
 21
120.5603918856686
 72
     1
 10
205.1495915781098
 20
120.5603918856686
 11
205.8995915781098
 21
121.3103918856686
 72
     1
 10
205.8995915781098
 20
121.3103918856686
 11
205.8995915781098
 21
122.2853918856686
 72
     1
 10
205.8995915781098
 20
122.2853918856686
 11
205.7495915781098
 21
122.4353918856686
 72
     1
 10
205.7495915781098
 20
122.4353918856686
 11
205.1495915781099
 21
122.4353918856686
 72
     1
 10
205.1495915781099
 20
122.4353918856686
 11
201.6995915781098
 21
122.4353918856686
 72
     2
 10
201.6995915781098
 20
122.7353918856686
 40
0.3
 50
90.0
 51
180.0
 73
     0
 72
     1
 10
201.3995915781098
 20
122.7353918856686
 11
201.3995915781098
 21
124.0103918856686
 72
     1
 10
201.3995915781098
 20
124.0103918856686
 11
201.2495915781099
 21
124.1603918856686
 72
     1
 10
201.2495915781099
 20
124.1603918856686
 11
194.3495915781099
 21
124.1603918856686
 72
     1
 10
194.3495915781098
 20
124.1603918856686
 11
194.1995915781098
 21
124.0103918856686
 72
     1
 10
194.1995915781098
 20
124.0103918856686
 11
194.1995915781098
 21
122.2103918856686
 72
     1
 10
194.1995915781098
 20
122.2103918856686
 11
194.3495915781098
 21
122.0603918856686
 72
     1
 10
194.3495915781098
 20
122.0603918856686
 11
197.4245915781098
 21
122.0603918856686
 72
     2
 10
197.4245915781098
 20
121.7603918856686
 40
0.3
 50
270.0
 51
360.0
 73
     0
 97
        0
 75
     0
 76
     1
 52
45.0
 41
1.0
 77
     0
 78
     1
 53
45.0
 43
0.0
 44
0.0
 45
-2.245064030267288
 46
2.245064030267288
 79
     0
 98
        0
  0
LINE
  5
129
330
40
100
AcDbEntity
  8
0003381
  6
Continuous
 62
     7
100
AcDbLine
 10
205.8995915781
 20
92.8103918857
 30
0.0
 11
205.8995915781
 21
82.3103918857
 31
0.0
  0
LINE
  5
12A
330
40
100
AcDbEntity
  8
0003381
  6
Continuous
 62
     7
100
AcDbLine
 10
205.1495915781
 20
93.5603918857
 30
0.0
 11
205.1495915781
 21
81.5603918857
 31
0.0
  0
LINE
  5
12B
330
40
100
AcDbEntity
  8
0003381
  6
Continuous
 62
     7
100
AcDbLine
 10
205.1495915781
 20
93.5603918857
 30
0.0
 11
198.4745915781
 21
93.5603918857
 31
0.0
  0
LINE
  5
12C
330
40
100
AcDbEntity
  8
0003381
  6
Continuous
 62
     7
100
AcDbLine
 10
198.4745915781
 20
81.5603918857
 30
0.0
 11
205.1495915781
 21
81.5603918857
 31
0.0
  0
LINE
  5
12D
330
40
100
AcDbEntity
  8
0003381
  6
Continuous
 62
     7
100
AcDbLine
 10
205.1495915781
 20
81.5603918857
 30
0.0
 11
205.8995915781
 21
82.3103918857
 31
0.0
  0
LINE
  5
12E
330
40
100
AcDbEntity
  8
0003381
  6
Continuous
 62
     7
100
AcDbLine
 10
205.8995915781
 20
92.8103918857
 30
0.0
 11
205.1495915781
 21
93.5603918857
 31
0.0
  0
LINE
  5
130
330
40
100
AcDbEntity
  8
0007093
  6
Continuous
 62
     7
100
AcDbLine
 10
201.3995915781
 20
122.4353918857
 30
0.0
 11
201.3995915781
 21
130.6853918857
 31
0.0
  0
LINE
  5
131
330
40
100
AcDbEntity
  8
0007093
  6
Continuous
 62
     7
100
AcDbLine
 10
205.8995915781
 20
123.1853918857
 30
0.0
 11
205.8995915781
 21
129.9353918857
 31
0.0
  0
LINE
  5
132
330
40
100
AcDbEntity
  8
0007093
  6
Continuous
 62
     7
100
AcDbLine
 10
187.1495915781
 20
124.3103918857
 30
0.0
 11
187.1495915781
 21
128.8103918857
 31
0.0
  0
LINE
  5
133
330
40
100
AcDbEntity
  8
0007093
  6
Continuous
 62
     7
100
AcDbLine
 10
186.3995915781
 20
125.0603918857
 30
0.0
 11
186.3995915781
 21
128.0603918857
 31
0.0
  0
LINE
  5
134
330
40
100
AcDbEntity
  8
0007093
  6
Continuous
 62
     7
100
AcDbLine
 10
205.1495915781
 20
130.6853918857
 30
0.0
 11
201.3995915781
 21
130.6853918857
 31
0.0
  0
LINE
  5
135
330
40
100
AcDbEntity
  8
0007093
  6
Continuous
 62
     7
100
AcDbLine
 10
201.3995915781
 20
122.4353918857
 30
0.0
 11
205.1495915781
 21
122.4353918857
 31
0.0
  0
LINE
  5
136
330
40
100
AcDbEntity
  8
0007093
  6
Continuous
 62
     7
100
AcDbLine
 10
201.3995915781
 20
128.8103918857
 30
0.0
 11
199.8995915781
 21
128.8103918857
 31
0.0
  0
LINE
  5
137
330
40
100
AcDbEntity
  8
0007093
  6
Continuous
 62
     7
100
AcDbLine
 10
199.8995915781
 20
124.3103918857
 30
0.0
 11
201.3995915781
 21
124.3103918857
 31
0.0
  0
ARC
  5
138
330
40
100
AcDbEntity
  8
0007093
  6
Continuous
 62
     7
100
AcDbCircle
 10
205.1495915781
 20
123.1853918857
 30
0.0
 40
0.7500000000000007
100
AcDbArc
 50
270.0
 51
0.0
  0
ARC
  5
139
330
40
100
AcDbEntity
  8
0007093
  6
Continuous
 62
     7
100
AcDbCircle
 10
205.1495915781
 20
129.9353918857
 30
0.0
 40
0.7500000000000007
100
AcDbArc
 50
0.0
 51
90.0
  0
LINE
  5
13A
330
40
100
AcDbEntity
  8
0007093
  6
Continuous
 62
     7
100
AcDbLine
 10
199.8995915781
 20
128.8103918857
 30
0.0
 11
187.1495915781
 21
128.8103918857
 31
0.0
  0
LINE
  5
13B
330
40
100
AcDbEntity
  8
0007093
  6
Continuous
 62
     7
100
AcDbLine
 10
187.1495915781
 20
124.3103918857
 30
0.0
 11
199.8995915781
 21
124.3103918857
 31
0.0
  0
LINE
  5
13C
330
40
100
AcDbEntity
  8
0007093
  6
Continuous
 62
     7
100
AcDbLine
 10
187.1495915781
 20
128.8103918857
 30
0.0
 11
186.3995915781
 21
128.0603918857
 31
0.0
  0
LINE
  5
13D
330
40
100
AcDbEntity
  8
0007093
  6
Continuous
 62
     7
100
AcDbLine
 10
186.3995915781
 20
125.0603918857
 30
0.0
 11
187.1495915781
 21
124.3103918857
 31
0.0
  0
LINE
  5
13E
330
40
100
AcDbEntity
  8
0007093
  6
Continuous
 62
     7
100
AcDbLine
 10
186.6898415781
 20
128.3506418857
 30
0.0
 11
199.8995915781
 21
128.3506418857
 31
0.0
  0
LINE
  5
13F
330
40
100
AcDbEntity
  8
0007093
  6
Continuous
 62
     7
100
AcDbLine
 10
186.6898415781
 20
124.7701418857
 30
0.0
 11
199.8995915781
 21
124.7701418857
 31
0.0
  0
LINE
  5
140
330
40
100
AcDbEntity
  8
0007093
  6
Continuous
 62
     7
100
AcDbLine
 10
199.8995915781
 20
124.3103918857
 30
0.0
 11
199.8995915781
 21
128.8103918857
 31
0.0
  0
LINE
  5
142
330
40
100
AcDbEntity
  8
0004885
  6
Continuous
 62
     7
100
AcDbLine
 10
228.4745915781
 20
107.0603918857
 30
0.0
 11
228.4745915781
 21
119.0603918857
 31
0.0
  0
LINE
  5
143
330
40
100
AcDbEntity
  8
0004885
  6
Continuous
 62
     7
100
AcDbLine
 10
228.1852517499
 20
107.0603918857
 30
0.0
 11
228.1852517499
 21
119.0603918857
 31
0.0
  0
LINE
  5
144
330
40
100
AcDbEntity
  8
0004885
  6
Continuous
 62
     7
100
AcDbLine
 10
199.4894353281
 20
107.0603918857
 30
0.0
 11
199.4894353281
 21
113.0603918857
 31
0.0
  0
LINE
  5
145
330
40
100
AcDbEntity
  8
0004885
  6
Continuous
 62
     7
100
AcDbLine
 10
198.4745915781
 20
107.0603918857
 30
0.0
 11
198.4745915781
 21
112.0455481357
 31
0.0
  0
LINE
  5
146
330
40
100
AcDbEntity
  8
0004885
  6
Continuous
 62
     7
100
AcDbLine
 10
216.1745915781
 20
101.0603918857
 30
0.0
 11
216.1745915781
 21
113.0603918857
 31
0.0
  0
LINE
  5
147
330
40
100
AcDbEntity
  8
0004885
  6
Continuous
 62
     7
100
AcDbLine
 10
221.1245915781
 20
107.0603918857
 30
0.0
 11
221.1245915781
 21
113.0603918857
 31
0.0
  0
LINE
  5
148
330
40
100
AcDbEntity
  8
0004885
  6
Continuous
 62
     7
100
AcDbLine
 10
228.4745915781
 20
119.0603918857
 30
0.0
 11
228.1852517499
 21
119.0603918857
 31
0.0
  0
LINE
  5
149
330
40
100
AcDbEntity
  8
0004885
  6
Continuous
 62
     7
100
AcDbLine
 10
228.1852517499
 20
119.0603918857
 30
0.0
 11
222.404921664
 21
113.2800617998
 31
0.0
  0
ARC
  5
14A
330
40
100
AcDbEntity
  8
0004885
  6
Continuous
 62
     7
100
AcDbCircle
 10
221.8745915781
 20
113.8103918857
 30
0.0
 40
0.7499999999999991
100
AcDbArc
 50
270.0
 51
315.0
  0
LINE
  5
14B
330
40
100
AcDbEntity
  8
0004885
  6
Continuous
 62
     7
100
AcDbLine
 10
221.8745915781
 20
113.0603918857
 30
0.0
 11
221.1245915781
 21
113.0603918857
 31
0.0
  0
LINE
  5
14C
330
40
100
AcDbEntity
  8
0004885
  6
Continuous
 62
     7
100
AcDbLine
 10
199.4894353281
 20
113.0603918857
 30
0.0
 11
198.4745915781
 21
112.0455481357
 31
0.0
  0
LINE
  5
14D
330
40
100
AcDbEntity
  8
0004885
  6
Continuous
 62
     7
100
AcDbLine
 10
216.1745915781
 20
113.0603918857
 30
0.0
 11
199.4894353281
 21
113.0603918857
 31
0.0
  0
LINE
  5
14E
330
40
100
AcDbEntity
  8
0004885
  6
Continuous
 62
     7
100
AcDbLine
 10
214.9745915781
 20
101.0603918857
 30
0.0
 11
216.1745915781
 21
101.0603918857
 31
0.0
  0
LINE
  5
14F
330
40
100
AcDbEntity
  8
0004885
  6
Continuous
 62
     7
100
AcDbLine
 10
216.1745915781
 20
102.2108918857
 30
0.0
 11
214.9745915781
 21
102.2108918857
 31
0.0
  0
LINE
  5
150
330
40
100
AcDbEntity
  8
0004885
  6
Continuous
 62
     7
100
AcDbLine
 10
216.1745915781
 20
111.9098918857
 30
0.0
 11
198.4745915781
 21
111.9098918857
 31
0.0
  0
LINE
  5
151
330
40
100
AcDbEntity
  8
DV1_Default
  6
Continuous
 62
     7
100
AcDbLine
 10
216.1745915781
 20
113.0603918857
 30
0.0
 11
221.4995915781
 21
113.0603918857
 31
0.0
  0
LINE
  5
152
330
40
100
AcDbEntity
  8
DV1_Default
  6
Continuous
 62
     7
100
AcDbLine
 10
215.8694236317
 20
101.0603918857
 30
0.0
 11
220.9745915781
 21
101.0603918857
 31
0.0
  0
ENDBLK
  5
154
330
40
100
AcDbEntity
  8
0
100
AcDbBlockEnd
  0
BLOCK
  5
15E
330
155
100
AcDbEntity
  8
0
100
AcDbBlockBegin
  2
GDimGGroup
 70
     0
 10
0.0
 20
0.0
 30
0.0
  3
GDimGGroup
  1

  0
HATCH
  5
157
330
155
100
AcDbEntity
  8
Default
  6
Continuous
 62
     7
100
AcDbHatch
 10
0.0
 20
0.0
 30
0.0
210
0.0
220
0.0
230
1.0
  2
SOLID
 70
     1
 71
     0
 91
        1
 92
        1
 93
        3
 72
     1
 10
211.4745914700763
 20
153.5037327793792
 11
211.4745914700763
 21
152.3370660767014
 72
     1
 10
211.4745914700763
 20
152.3370660767014
 11
214.9745915781098
 21
152.9203994280403
 72
     1
 10
214.9745915781098
 20
152.9203994280403
 11
211.4745914700763
 21
153.5037327793792
 97
        0
 75
     0
 76
     1
 98
        0
  0
HATCH
  5
158
330
155
100
AcDbEntity
  8
Default
  6
Continuous
 62
     7
100
AcDbHatch
 10
0.0
 20
0.0
 30
0.0
210
0.0
220
0.0
230
1.0
  2
SOLID
 70
     1
 71
     0
 91
        1
 92
        1
 93
        3
 72
     1
 10
51.97458954037598
 20
153.5037327793792
 11
48.47458943234256
 21
152.9203994280403
 72
     1
 10
48.47458943234256
 20
152.9203994280403
 11
51.97458954037598
 21
152.3370660767014
 72
     1
 10
51.97458954037598
 20
152.3370660767014
 11
51.97458954037598
 21
153.5037327793792
 97
        0
 75
     0
 76
     1
 98
        0
  0
LINE
  5
159
330
155
100
AcDbEntity
  8
Default
  6
Continuous
 62
     7
100
AcDbLine
 10
214.9745915781
 20
116.7353918857
 30
0.0
 11
214.9745915781
 21
154.6703994821
 31
0.0
  0
LINE
  5
15A
330
155
100
AcDbEntity
  8
Default
  6
Continuous
 62
     7
100
AcDbLine
 10
48.4745915781
 20
125.1760285267
 30
0.0
 11
48.4745915781
 21
154.6703994821
 31
0.0
  0
LINE
  5
15B
330
155
100
AcDbEntity
  8
Default
  6
Continuous
 62
     7
100
AcDbLine
 10
214.9745915781
 20
152.920399428
 30
0.0
 11
48.4745894323
 21
152.920399428
 31
0.0
  0
TEXT
  5
15D
330
155
100
AcDbEntity
  8
Default
  6
Continuous
 62
     7
100
AcDbText
 10
129.5768632325
 20
153.795399428
 30
0.0
 40
3.5
  1
111
  7
SEACAD_Solid_Edge_ISO
 11
129.5768632325
 21
157.295399428
 31
0.0
100
AcDbText
 73
     3
  0
ENDBLK
  5
15F
330
155
100
AcDbEntity
  8
0
100
AcDbBlockEnd
  0
BLOCK
  5
168
330
160
100
AcDbEntity
  8
0
100
AcDbBlockBegin
  2
GDimGGroup1
 70
     0
 10
0.0
 20
0.0
 30
0.0
  3
GDimGGroup1
  1

  0
HATCH
  5
162
330
160
100
AcDbEntity
  8
Default
  6
Continuous
 62
     7
100
AcDbHatch
 10
0.0
 20
0.0
 30
0.0
210
0.0
220
0.0
230
1.0
  2
SOLID
 70
     1
 71
     0
 91
        1
 92
        1
 93
        3
 72
     1
 10
241.1938116909948
 20
115.5603917776351
 11
240.6104783396559
 21
119.0603918856686
 72
     1
 10
240.6104783396559
 20
119.0603918856686
 11
240.027144988317
 21
115.5603917776351
 72
     1
 10
240.027144988317
 20
115.5603917776351
 11
241.1938116909948
 21
115.5603917776351
 97
        0
 75
     0
 76
     1
 98
        0
  0
LINE
  5
163
330
160
100
AcDbEntity
  8
Default
  6
Continuous
 62
     7
100
AcDbLine
 10
213.7745915781
 20
119.0603918857
 30
0.0
 11
242.3604783937
 21
119.0603918857
 31
0.0
  0
LINE
  5
164
330
160
100
AcDbEntity
  8
Default
  6
Continuous
 62
     7
100
AcDbLine
 10
240.6104783397
 20
119.0603918857
 30
0.0
 11
240.6104783397
 21
107.0603917814
 31
0.0
  0
TEXT
  5
166
330
160
100
AcDbEntity
  8
Default
  6
Continuous
 62
     7
100
AcDbText
 10
239.7354783397
 20
102.225005019
 30
0.0
 40
3.5
  1
O
 50
90.0
  7
SEACAD_Solid_Edge_ISO1_Symbols
 11
236.2354783397
 21
102.225005019
 31
0.0
100
AcDbText
 73
     3
  0
TEXT
  5
167
330
160
100
AcDbEntity
  8
Default
  6
Continuous
 62
     7
100
AcDbText
 10
239.7354783397
 20
108.3162330892
 30
0.0
 40
3.5
  1
16
 50
90.0
  7
SEACAD_Solid_Edge_ISO
 11
236.2354783397
 21
108.3162330892
 31
0.0
100
AcDbText
 73
     3
  0
ENDBLK
  5
169
330
160
100
AcDbEntity
  8
0
100
AcDbBlockEnd
  0
BLOCK
  5
173
330
16A
100
AcDbEntity
  8
0
100
AcDbBlockBegin
  2
GDimGGroup2
 70
     0
 10
0.0
 20
0.0
 30
0.0
  3
GDimGGroup2
  1

  0
HATCH
  5
16C
330
16A
100
AcDbEntity
  8
Default
  6
Continuous
 62
     7
100
AcDbHatch
 10
0.0
 20
0.0
 30
0.0
210
0.0
220
0.0
230
1.0
  2
SOLID
 70
     1
 71
     0
 91
        1
 92
        1
 93
        3
 72
     1
 10
249.593809178659
 20
130.5603917776351
 11
249.0104758273201
 21
134.0603918856686
 72
     1
 10
249.0104758273201
 20
134.0603918856686
 11
248.4271424759812
 21
130.5603917776351
 72
     1
 10
248.4271424759812
 20
130.5603917776351
 11
249.593809178659
 21
130.5603917776351
 97
        0
 75
     0
 76
     1
 98
        0
  0
HATCH
  5
16D
330
16A
100
AcDbEntity
  8
Default
  6
Continuous
 62
     7
100
AcDbHatch
 10
0.0
 20
0.0
 30
0.0
210
0.0
220
0.0
230
1.0
  2
SOLID
 70
     1
 71
     0
 91
        1
 92
        1
 93
        3
 72
     1
 10
249.593809178659
 20
83.56039059299283
 11
248.4271424759812
 21
83.56039059299283
 72
     1
 10
248.4271424759812
 20
83.56039059299283
 11
249.0104758273201
 21
80.06039048495941
 72
     1
 10
249.0104758273201
 20
80.06039048495941
 11
249.593809178659
 21
83.56039059299283
 97
        0
 75
     0
 76
     1
 98
        0
  0
LINE
  5
16E
330
16A
100
AcDbEntity
  8
Default
  6
Continuous
 62
     7
100
AcDbLine
 10
133.5245915781
 20
134.0603918857
 30
0.0
 11
250.7604758813
 21
134.0603918857
 31
0.0
  0
LINE
  5
16F
330
16A
100
AcDbEntity
  8
Default
  6
Continuous
 62
     7
100
AcDbLine
 10
133.5245915781
 20
80.0603918857
 30
0.0
 11
250.7604758813
 21
80.0603918857
 31
0.0
  0
LINE
  5
170
330
16A
100
AcDbEntity
  8
Default
  6
Continuous
 62
     7
100
AcDbLine
 10
249.0104758273
 20
134.0603918857
 30
0.0
 11
249.0104758273
 21
80.060390485
 31
0.0
  0
TEXT
  5
171
330
16A
100
AcDbEntity
  8
Default
  6
Continuous
 62
     7
100
AcDbText
 10
248.1354758273
 20
102.0261407866
 30
0.0
 40
3.5
  1
O
 50
90.0
  7
SEACAD_Solid_Edge_ISO1_Symbols
 11
244.6354758273
 21
102.0261407866
 31
0.0
100
AcDbText
 73
     3
  0
TEXT
  5
172
330
16A
100
AcDbEntity
  8
Default
  6
Continuous
 62
     7
100
AcDbText
 10
248.1354758273
 20
108.1173688568
 30
0.0
 40
3.5
  1
36
 50
90.0
  7
SEACAD_Solid_Edge_ISO
 11
244.6354758273
 21
108.1173688568
 31
0.0
100
AcDbText
 73
     3
  0
ENDBLK
  5
174
330
16A
100
AcDbEntity
  8
0
100
AcDbBlockEnd
  0
BLOCK
  5
17D
330
175
100
AcDbEntity
  8
0
100
AcDbBlockBegin
  2
GDimGGroup3
 70
     0
 10
0.0
 20
0.0
 30
0.0
  3
GDimGGroup3
  1

  0
HATCH
  5
177
330
175
100
AcDbEntity
  8
Default
  6
Continuous
 62
     7
100
AcDbHatch
 10
0.0
 20
0.0
 30
0.0
210
0.0
220
0.0
230
1.0
  2
SOLID
 70
     1
 71
     0
 91
        1
 92
        1
 93
        3
 72
     1
 10
96.9745916861432
 20
60.67643823624208
 11
96.9745916861432
 21
61.84310493891989
 72
     1
 10
96.9745916861432
 20
61.84310493891989
 11
93.47459157810978
 21
61.25977158758099
 72
     1
 10
93.47459157810978
 20
61.25977158758099
 11
96.9745916861432
 21
60.67643823624208
 97
        0
 75
     0
 76
     1
 98
        0
  0
HATCH
  5
178
330
175
100
AcDbEntity
  8
Default
  6
Continuous
 62
     7
100
AcDbHatch
 10
0.0
 20
0.0
 30
0.0
210
0.0
220
0.0
230
1.0
  2
SOLID
 70
     1
 71
     0
 91
        1
 92
        1
 93
        3
 72
     1
 10
194.9745881918209
 20
60.67643823624208
 11
198.4745882998543
 21
61.25977158758099
 72
     1
 10
198.4745882998543
 20
61.25977158758099
 11
194.9745881918209
 21
61.84310493891989
 72
     1
 10
194.9745881918209
 20
61.84310493891989
 11
194.9745881918209
 21
60.67643823624208
 97
        0
 75
     0
 76
     1
 98
        0
  0
LINE
  5
179
330
175
100
AcDbEntity
  8
Default
  6
Continuous
 62
     7
100
AcDbLine
 10
93.4745915781
 20
70.0103918857
 30
0.0
 11
93.4745915781
 21
59.5097715336
 31
0.0
  0
LINE
  5
17A
330
175
100
AcDbEntity
  8
Default
  6
Continuous
 62
     7
100
AcDbLine
 10
198.4745915781
 20
80.8103918857
 30
0.0
 11
198.4745915781
 21
59.5097715336
 31
0.0
  0
LINE
  5
17B
330
175
100
AcDbEntity
  8
Default
  6
Continuous
 62
     7
100
AcDbLine
 10
93.4745915781
 20
61.2597715876
 30
0.0
 11
198.4745882999
 21
61.2597715876
 31
0.0
  0
TEXT
  5
17C
330
175
100
AcDbEntity
  8
Default
  6
Continuous
 62
     7
100
AcDbText
 10
143.8268626663
 20
62.1347715876
 30
0.0
 40
3.5
  1
70
  7
SEACAD_Solid_Edge_ISO
 11
143.8268626663
 21
65.6347715876
 31
0.0
100
AcDbText
 73
     3
  0
ENDBLK
  5
17E
330
175
100
AcDbEntity
  8
0
100
AcDbBlockEnd
  0
BLOCK
  5
187
330
17F
100
AcDbEntity
  8
0
100
AcDbBlockBegin
  2
GDimGGroup4
 70
     0
 10
0.0
 20
0.0
 30
0.0
  3
GDimGGroup4
  1

  0
HATCH
  5
181
330
17F
100
AcDbEntity
  8
Default
  6
Continuous
 62
     7
100
AcDbHatch
 10
0.0
 20
0.0
 30
0.0
210
0.0
220
0.0
230
1.0
  2
SOLID
 70
     1
 71
     0
 91
        1
 92
        1
 93
        3
 72
     1
 10
211.4745914700763
 20
145.10373214757
 11
211.4745914700763
 21
143.9370654448922
 72
     1
 10
211.4745914700763
 20
143.9370654448922
 11
214.9745915781098
 21
144.5203987962311
 72
     1
 10
214.9745915781098
 20
144.5203987962311
 11
211.4745914700763
 21
145.10373214757
 97
        0
 75
     0
 76
     1
 98
        0
  0
HATCH
  5
182
330
17F
100
AcDbEntity
  8
Default
  6
Continuous
 62
     7
100
AcDbHatch
 10
0.0
 20
0.0
 30
0.0
210
0.0
220
0.0
230
1.0
  2
SOLID
 70
     1
 71
     0
 91
        1
 92
        1
 93
        3
 72
     1
 10
201.9745917755502
 20
145.10373214757
 11
198.4745916675167
 21
144.5203987962311
 72
     1
 10
198.4745916675167
 20
144.5203987962311
 11
201.9745917755502
 21
143.9370654448922
 72
     1
 10
201.9745917755502
 20
143.9370654448922
 11
201.9745917755502
 21
145.10373214757
 97
        0
 75
     0
 76
     1
 98
        0
  0
LINE
  5
183
330
17F
100
AcDbEntity
  8
Default
  6
Continuous
 62
     7
100
AcDbLine
 10
214.9745915781
 20
116.7353918857
 30
0.0
 11
214.9745915781
 21
146.2703988502
 31
0.0
  0
LINE
  5
184
330
17F
100
AcDbEntity
  8
Default
  6
Continuous
 62
     7
100
AcDbLine
 10
198.4745915781
 20
133.3103918857
 30
0.0
 11
198.4745915781
 21
146.2703988502
 31
0.0
  0
LINE
  5
185
330
17F
100
AcDbEntity
  8
Default
  6
Continuous
 62
     7
100
AcDbLine
 10
214.9745915781
 20
144.5203987962
 30
0.0
 11
198.4745916675
 21
144.5203987962
 31
0.0
  0
TEXT
  5
186
330
17F
100
AcDbEntity
  8
Default
  6
Continuous
 62
     7
100
AcDbText
 10
205.292773441
 20
145.3953987962
 30
0.0
 40
3.5
  1
11
  7
SEACAD_Solid_Edge_ISO
 11
205.292773441
 21
148.8953987962
 31
0.0
100
AcDbText
 73
     3
  0
ENDBLK
  5
188
330
17F
100
AcDbEntity
  8
0
100
AcDbBlockEnd
  0
BLOCK
  5
18C
330
189
100
AcDbEntity
  8
0
100
AcDbBlockBegin
  2
SEANNOT_GROUP
 70
     0
 10
0.0
 20
0.0
 30
0.0
  3
SEANNOT_GROUP
  1

  0
TEXT
  5
18B
330
189
100
AcDbEntity
  8
Default
  6
Continuous
 62
     7
100
AcDbText
 10
243.1483969886
 20
25.7525109624
 30
0.0
 40
3.5
  1
280501640
  7
SEACAD_Solid_Edge_ANSIB
 11
243.1483969886
 21
29.2525109624
 31
0.0
100
AcDbText
 73
     3
  0
ENDBLK
  5
18D
330
189
100
AcDbEntity
  8
0
100
AcDbBlockEnd
  0
BLOCK
  5
191
330
18E
100
AcDbEntity
  8
0
100
AcDbBlockBegin
  2
SEANNOT_GROUP1
 70
     0
 10
0.0
 20
0.0
 30
0.0
  3
SEANNOT_GROUP1
  1

  0
TEXT
  5
190
330
18E
100
AcDbEntity
  8
Default
  6
Continuous
 62
     7
100
AcDbText
 10
243.1477357349
 20
20.0537100543
 30
0.0
 40
3.5
  1
23.09.2015
  7
SEACAD_Solid_Edge_ANSI
 11
243.1477357349
 21
23.5537100543
 31
0.0
100
AcDbText
 73
     3
  0
ENDBLK
  5
192
330
18E
100
AcDbEntity
  8
0
100
AcDbBlockEnd
  0
BLOCK
  5
195
330
193
100
AcDbEntity
  8
0
100
AcDbBlockBegin
  2
SEANNOT_GROUP2
 70
     0
 10
0.0
 20
0.0
 30
0.0
  3
SEANNOT_GROUP2
  1

  0
TEXT
  5
194
330
193
100
AcDbEntity
  8
Default
  6
Continuous
 62
     7
100
AcDbText
 10
243.1795282745
 20
31.5598894014
 30
0.0
 40
3.5
  1
C5_MA16x070
  7
SEACAD_Solid_Edge_ANSIB
 11
243.1795282745
 21
35.0598894014
 31
0.0
100
AcDbText
 73
     3
  0
ENDBLK
  5
196
330
193
100
AcDbEntity
  8
0
100
AcDbBlockEnd
  0
BLOCK
  5
199
330
197
100
AcDbEntity
  8
0
100
AcDbBlockBegin
  2
SEANNOT_GROUP3
 70
     0
 10
0.0
 20
0.0
 30
0.0
  3
SEANNOT_GROUP3
  1

  0
TEXT
  5
198
330
197
100
AcDbEntity
  8
Default
  6
Continuous
 62
     7
100
AcDbText
 10
243.2357917511
 20
14.1955389783
 30
0.0
 40
3.5
  1
1.5:1
  7
SEACAD_Solid_Edge_ANSI
 11
243.2357917511
 21
17.6955389783
 31
0.0
100
AcDbText
 73
     3
  0
ENDBLK
  5
19A
330
197
100
AcDbEntity
  8
0
100
AcDbBlockEnd
  0
BLOCK
  5
1E1
330
19B
100
AcDbEntity
  8
0
100
AcDbBlockBegin
  2
Block1
 70
     0
 10
0.0
 20
0.0
 30
0.0
  3
Block1
  1

  0
LINE
  5
19C
330
19B
100
AcDbEntity
  8
Default
  6
Continuous
 62
     7
100
AcDbLine
 10
42.3415792923
 20
6.5926277851
 30
0.0
 11
40.225655308
 21
3.525
 31
0.0
  0
LINE
  5
19D
330
19B
100
AcDbEntity
  8
Default
  6
Continuous
 62
     7
100
AcDbLine
 10
40.225655308
 20
3.525
 30
0.0
 11
41.2882372215
 21
1.9958060288
 31
0.0
  0
LINE
  5
19E
330
19B
100
AcDbEntity
  8
Default
  6
Continuous
 62
     7
100
AcDbLine
 10
41.2882372215
 20
1.9958060288
 30
0.0
 11
40.2556847969
 21
0.5266710354
 31
0.0
  0
LINE
  5
19F
330
19B
100
AcDbEntity
  8
Default
  6
Continuous
 62
     7
100
AcDbLine
 10
40.2556847969
 20
0.5266710354
 30
0.0
 11
39.2231323722
 21
2.1459534731
 31
0.0
  0
LINE
  5
1A0
330
19B
100
AcDbEntity
  8
Default
  6
Continuous
 62
     7
100
AcDbLine
 10
39.2231323722
 20
2.1459534731
 30
0.0
 11
37.7031782438
 21
0.0
 31
0.0
  0
LINE
  5
1A1
330
19B
100
AcDbEntity
  8
Default
  6
Continuous
 62
     7
100
AcDbLine
 10
37.7031782438
 20
0.0
 30
0.0
 11
35.6265235911
 21
0.0
 31
0.0
  0
LINE
  5
1A2
330
19B
100
AcDbEntity
  8
Default
  6
Continuous
 62
     7
100
AcDbLine
 10
35.6265235911
 20
0.0
 30
0.0
 11
38.209059633
 21
3.525
 31
0.0
  0
LINE
  5
1A3
330
19B
100
AcDbEntity
  8
Default
  6
Continuous
 62
     7
100
AcDbLine
 10
38.209059633
 20
3.525
 30
0.0
 11
36.1046854522
 21
6.5926277851
 31
0.0
  0
LINE
  5
1A4
330
19B
100
AcDbEntity
  8
Default
  6
Continuous
 62
     7
100
AcDbLine
 10
36.1046854522
 20
6.5926277851
 30
0.0
 11
38.209059633
 21
6.5926277851
 31
0.0
  0
LINE
  5
1A5
330
19B
100
AcDbEntity
  8
Default
  6
Continuous
 62
     7
100
AcDbLine
 10
38.209059633
 20
6.5926277851
 30
0.0
 11
39.2231323722
 21
4.8855668414
 31
0.0
  0
LINE
  5
1A6
330
19B
100
AcDbEntity
  8
Default
  6
Continuous
 62
     7
100
AcDbLine
 10
39.2231323722
 20
4.8855668414
 30
0.0
 11
40.225655308
 21
6.5926277851
 31
0.0
  0
LINE
  5
1A7
330
19B
100
AcDbEntity
  8
Default
  6
Continuous
 62
     7
100
AcDbLine
 10
40.225655308
 20
6.5926277851
 30
0.0
 11
42.3415792923
 21
6.5926277851
 31
0.0
  0
SPLINE
  5
1A8
330
19B
100
AcDbEntity
  8
Default
  6
Continuous
 62
     7
100
AcDbSpline
210
0.0
220
0.0
230
1.0
 70
     8
 71
     3
 72
    13
 73
     9
 74
     0
 42
0.0000000012369638
 43
0.0000000001
 12
1.0
 22
0.0
 32
0.0
 13
1.0
 23
0.0
 33
0.0
 40
0.0
 40
0.0
 40
0.0
 40
0.0
 40
0.9091644120227717
 40
0.9091644120227717
 40
0.9091644120227717
 40
0.9554905618911577
 40
0.9554905618911577
 40
1.0
 40
1.0
 40
1.0
 40
1.0
 10
40.88399410222804
 20
0.427342726081259
 30
0.0
 10
42.29076015727392
 20
2.423148754914811
 30
0.0
 10
43.69752621231979
 20
4.418954783748362
 30
0.0
 10
45.10429226736566
 20
6.414760812581914
 30
0.0
 10
45.18660375034128
 20
6.531537694833034
 30
0.0
 10
45.28446920052424
 20
6.592627785058978
 30
0.0
 10
45.51546526867628
 20
6.592627785058978
 30
0.0
 10
45.61941349934469
 20
6.53256880733945
 30
0.0
 10
45.71181192660551
 20
6.414760812581914
 30
0.0
  0
SPLINE
  5
1A9
330
19B
100
AcDbEntity
  8
Default
  6
Continuous
 62
     7
100
AcDbSpline
210
0.0
220
0.0
230
1.0
 70
     8
 71
     3
 72
    16
 73
    12
 74
     0
 42
0.0000000006014133
 43
0.0000000001
 12
1.0
 22
0.0
 32
0.0
 13
1.0
 23
0.0
 33
0.0
 40
0.0
 40
0.0
 40
0.0
 40
0.0
 40
0.4418652593848311
 40
0.4418652593848311
 40
0.4418652593848311
 40
0.455090010411123
 40
0.455090010411123
 40
0.4811129075918901
 40
0.4811129075918901
 40
0.4811129075918901
 40
1.0
 40
1.0
 40
1.0
 40
1.0
 10
45.71181192660551
 20
6.414760812581914
 30
0.0
 10
47.11857798165137
 20
4.418954783748362
 30
0.0
 10
48.52534403669725
 20
2.42314875491481
 30
0.0
 10
49.93211009174313
 20
0.427342726081259
 30
0.0
 10
49.98455330475264
 20
0.352940532254955
 30
0.0
 10
50.01295871559633
 20
0.281815203145479
 30
0.0
 10
50.01295871559633
 20
0.0692988204456104
 30
0.0
 10
49.91363040629096
 20
0.0000000000000009
 30
0.0
 10
49.71497378768021
 20
0.0000000000000009
 30
0.0
 10
46.84754259501965
 20
0.0000000000000009
 30
0.0
 10
43.98011140235911
 20
0.0000000000000009
 30
0.0
 10
41.11268020969855
 20
0.0000000000000009
 30
0.0
  0
SPLINE
  5
1AA
330
19B
100
AcDbEntity
  8
Default
  6
Continuous
 62
     7
100
AcDbSpline
210
0.0
220
0.0
230
1.0
 70
     8
 71
     3
 72
    11
 73
     7
 74
     0
 42
0.0000000141737466
 43
0.0000000001
 12
1.0
 22
0.0
 32
0.0
 13
1.0
 23
0.0
 33
0.0
 40
0.0
 40
0.0
 40
0.0
 40
0.0
 40
0.6560933575639865
 40
0.6560933575639865
 40
0.6560933575639865
 40
1.0
 40
1.0
 40
1.0
 40
1.0
 10
41.11268020969855
 20
0.0000000000000009
 30
0.0
 10
40.90709370904325
 20
0.0000000000000009
 30
0.0
 10
40.80545543905635
 20
0.0739187418086509
 30
0.0
 10
40.80314547837483
 20
0.2194462647444313
 30
0.0
 10
40.80230295367286
 20
0.2725253209688669
 30
0.0
 10
40.83086500655307
 20
0.3418741808650076
 30
0.0
 10
40.88399410222804
 20
0.427342726081259
 30
0.0
  0
LINE
  5
1AB
330
19B
100
AcDbEntity
  8
Default
  6
Continuous
 62
     7
100
AcDbLine
 10
35.1853211009
 20
6.6087975098
 30
0.0
 11
35.1853211009
 21
0.0
 31
0.0
  0
SPLINE
  5
1AC
330
19B
100
AcDbEntity
  8
Default
  6
Continuous
 62
     7
100
AcDbSpline
210
0.0
220
0.0
230
1.0
 70
     8
 71
     3
 72
    14
 73
    10
 74
     0
 42
0.0000000052950889
 43
0.0000000001
 12
1.0
 22
0.0
 32
0.0
 13
1.0
 23
0.0
 33
0.0
 40
0.0
 40
0.0
 40
0.0
 40
0.0
 40
0.1210177131110554
 40
0.1210177131110554
 40
0.1210177131110554
 40
0.2419901306838391
 40
0.2419901306838391
 40
0.2419901306838391
 40
1.0
 40
1.0
 40
1.0
 40
1.0
 10
33.47364023591088
 20
6.320052424639582
 30
0.0
 10
33.47364023591088
 20
6.400901048492791
 30
0.0
 10
33.50135976408912
 20
6.467889908256881
 30
0.0
 10
33.55910878112713
 20
6.523328964613368
 30
0.0
 10
33.61680971405436
 20
6.578721860223512
 30
0.0
 10
33.68153669724771
 20
6.608797509829621
 30
0.0
 10
33.76238532110091
 20
6.608797509829621
 30
0.0
 10
34.23669724770642
 20
6.608797509829621
 30
0.0
 10
34.71100917431193
 20
6.608797509829621
 30
0.0
 10
35.18532110091743
 20
6.608797509829621
 30
0.0
  0
LINE
  5
1AD
330
19B
100
AcDbEntity
  8
Default
  6
Continuous
 62
     7
100
AcDbLine
 10
33.4736402359
 20
0.0
 30
0.0
 11
33.4736402359
 21
6.3200524246
 31
0.0
  0
LINE
  5
1AE
330
19B
100
AcDbEntity
  8
Default
  6
Continuous
 62
     7
100
AcDbLine
 10
35.1853211009
 20
0.0
 30
0.0
 11
33.4736402359
 21
0.0
 31
0.0
  0
SPLINE
  5
1AF
330
19B
100
AcDbEntity
  8
Default
  6
Continuous
 62
     7
100
AcDbSpline
210
0.0
220
0.0
230
1.0
 70
     8
 71
     3
 72
    16
 73
    12
 74
     0
 42
0.0000000009758823
 43
0.0000000001
 12
1.0
 22
0.0
 32
0.0
 13
1.0
 23
0.0
 33
0.0
 40
0.0
 40
0.0
 40
0.0
 40
0.0
 40
0.6159054655977501
 40
0.6159054655977501
 40
0.6159054655977501
 40
0.6376683166669079
 40
0.6376683166669079
 40
0.6603379531972834
 40
0.6603379531972834
 40
0.6603379531972834
 40
1.0
 40
1.0
 40
1.0
 40
1.0
 10
28.82137942332896
 20
0.0
 30
0.0
 10
28.82137942332896
 20
2.101294233289646
 30
0.0
 10
28.82137942332896
 20
4.202588466579293
 30
0.0
 10
28.82137942332896
 20
6.303882699868939
 30
0.0
 10
28.82137942332896
 20
6.38473132372215
 30
0.0
 10
28.84909895150721
 20
6.451720183486239
 30
0.0
 10
28.96228702490171
 20
6.564908256880734
 30
0.0
 10
29.02927588466579
 20
6.592627785058978
 30
0.0
 10
29.110124508519
 20
6.592627785058978
 30
0.0
 10
30.26895478374836
 20
6.592627785058978
 30
0.0
 10
31.42778505897771
 20
6.592627785058978
 30
0.0
 10
32.58661533420707
 20
6.592627785058978
 30
0.0
  0
LINE
  5
1B0
330
19B
100
AcDbEntity
  8
Default
  6
Continuous
 62
     7
100
AcDbLine
 10
30.5399901704
 20
0.0
 30
0.0
 11
28.8213794233
 21
0.0
 31
0.0
  0
LINE
  5
1B1
330
19B
100
AcDbEntity
  8
Default
  6
Continuous
 62
     7
100
AcDbLine
 10
30.5399901704
 20
2.5848460026
 30
0.0
 11
30.5399901704
 21
0.0
 31
0.0
  0
LINE
  5
1B2
330
19B
100
AcDbEntity
  8
Default
  6
Continuous
 62
     7
100
AcDbLine
 10
32.4872870249
 20
2.5848460026
 30
0.0
 11
30.5399901704
 21
2.5848460026
 31
0.0
  0
LINE
  5
1B3
330
19B
100
AcDbEntity
  8
Default
  6
Continuous
 62
     7
100
AcDbLine
 10
32.4872870249
 20
4.0424311927
 30
0.0
 11
32.4872870249
 21
2.5848460026
 31
0.0
  0
LINE
  5
1B4
330
19B
100
AcDbEntity
  8
Default
  6
Continuous
 62
     7
100
AcDbLine
 10
30.5399901704
 20
4.0424311927
 30
0.0
 11
32.4872870249
 21
4.0424311927
 31
0.0
  0
LINE
  5
1B5
330
19B
100
AcDbEntity
  8
Default
  6
Continuous
 62
     7
100
AcDbLine
 10
30.5399901704
 20
5.1419724771
 30
0.0
 11
30.5399901704
 21
4.0424311927
 31
0.0
  0
LINE
  5
1B6
330
19B
100
AcDbEntity
  8
Default
  6
Continuous
 62
     7
100
AcDbLine
 10
32.5866153342
 20
5.1419724771
 30
0.0
 11
30.5399901704
 21
5.1419724771
 31
0.0
  0
LINE
  5
1B7
330
19B
100
AcDbEntity
  8
Default
  6
Continuous
 62
     7
100
AcDbLine
 10
32.5866153342
 20
6.5926277851
 30
0.0
 11
32.5866153342
 21
5.1419724771
 31
0.0
  0
LINE
  5
1B8
330
19B
100
AcDbEntity
  8
Default
  6
Continuous
 62
     7
100
AcDbLine
 10
28.0706422018
 20
4.0424311927
 30
0.0
 11
28.0706422018
 21
2.5848460026
 31
0.0
  0
LINE
  5
1B9
330
19B
100
AcDbEntity
  8
Default
  6
Continuous
 62
     7
100
AcDbLine
 10
25.9362385321
 20
4.0424311927
 30
0.0
 11
28.0706422018
 21
4.0424311927
 31
0.0
  0
LINE
  5
1BA
330
19B
100
AcDbEntity
  8
Default
  6
Continuous
 62
     7
100
AcDbLine
 10
25.9362385321
 20
2.5848460026
 30
0.0
 11
25.9362385321
 21
4.0424311927
 31
0.0
  0
LINE
  5
1BB
330
19B
100
AcDbEntity
  8
Default
  6
Continuous
 62
     7
100
AcDbLine
 10
28.0706422018
 20
2.5848460026
 30
0.0
 11
25.9362385321
 21
2.5848460026
 31
0.0
  0
SPLINE
  5
1BC
330
19B
100
AcDbEntity
  8
Default
  6
Continuous
 62
     7
100
AcDbSpline
210
0.0
220
0.0
230
1.0
 70
    11
 71
     3
 72
    47
 73
    43
 74
     0
 42
0.0000000008494054
 43
0.0000000001
 12
1.0
 22
0.0
 32
0.0
 13
1.0
 23
0.0
 33
0.0
 40
0.0
 40
0.0
 40
0.0
 40
0.0
 40
0.0637917384076936
 40
0.0637917384076936
 40
0.0637917384076936
 40
0.1265834997779105
 40
0.1265834997779105
 40
0.1893752611481286
 40
0.1893752611481286
 40
0.1893752611481286
 40
0.2604081010642026
 40
0.2604081010642026
 40
0.3159741129340349
 40
0.3159741129340349
 40
0.3159741129340349
 40
0.3751091105868484
 40
0.3751091105868484
 40
0.3751091105868484
 40
0.435995169879425
 40
0.435995169879425
 40
0.435995169879425
 40
0.4997689343159713
 40
0.4997689343159713
 40
0.5635426987525196
 40
0.5635426987525196
 40
0.5635426987525196
 40
0.624232315369434
 40
0.624232315369434
 40
0.624232315369434
 40
0.6835869381889372
 40
0.6835869381889372
 40
0.6835869381889372
 40
0.7357943705008892
 40
0.7357943705008892
 40
0.8025337685079206
 40
0.8025337685079206
 40
0.8692731665149518
 40
0.8692731665149518
 40
0.9360125645219831
 40
0.9360125645219831
 40
0.9360125645219831
 40
1.0
 40
1.0
 40
1.0
 40
1.0
 10
21.44336500655308
 20
1.450655307994758
 30
0.0
 10
21.70208060288335
 20
1.450655307994758
 30
0.0
 10
21.94462647444299
 20
1.501474442988205
 30
0.0
 10
22.16869266055046
 20
1.600802752293579
 30
0.0
 10
22.39468942225328
 20
1.700986883770089
 30
0.0
 10
22.5937254259502
 20
1.836418741808651
 30
0.0
 10
22.93097968545217
 20
2.187532765399738
 30
0.0
 10
23.06495740498034
 20
2.395429226736567
 30
0.0
 10
23.15966579292267
 20
2.63335517693316
 30
0.0
 10
23.25469013236262
 20
2.87207485894082
 30
0.0
 10
23.30519331585845
 20
3.132306684141548
 30
0.0
 10
23.30519331585845
 20
3.642807994757537
 30
0.0
 10
23.25668414154652
 20
3.862254259501967
 30
0.0
 10
23.15966579292267
 20
4.074770642201835
 30
0.0
 10
23.06391850987524
 20
4.284502786020031
 30
0.0
 10
22.93097968545217
 20
4.472083879423329
 30
0.0
 10
22.76235255570118
 20
4.636091087811272
 30
0.0
 10
22.59487996078263
 20
4.798975392458079
 30
0.0
 10
22.39506880733945
 20
4.927146133682831
 30
0.0
 10
22.16869266055046
 20
5.021854521625164
 30
0.0
 10
21.94345992894685
 20
5.116084541989939
 30
0.0
 10
21.70208060288335
 20
5.167382044560944
 30
0.0
 10
21.18464941022281
 20
5.167382044560944
 30
0.0
 10
20.94210353866317
 20
5.118872870249017
 30
0.0
 10
20.71572739187418
 20
5.021854521625164
 30
0.0
 10
20.49213912866634
 20
4.926030980250372
 30
0.0
 10
20.29300458715597
 20
4.797788335517694
 30
0.0
 10
20.12437745740498
 20
4.636091087811272
 30
0.0
 10
19.95459636352431
 20
4.473287299158574
 30
0.0
 10
19.82177260812581
 20
4.284977064220183
 30
0.0
 10
19.72244429882045
 20
4.074770642201835
 30
0.0
 10
19.62222370164274
 20
3.86267589003505
 30
0.0
 10
19.57229685452162
 20
3.642807994757537
 30
0.0
 10
19.57229685452162
 20
3.132306684141548
 30
0.0
 10
19.62311598951508
 20
2.871281127129752
 30
0.0
 10
19.82177260812581
 20
2.395429226736567
 30
0.0
 10
19.95575032765399
 20
2.187532765399738
 30
0.0
 10
20.29300458715597
 20
1.836418741808651
 30
0.0
 10
20.49166120576671
 20
1.700131061598952
 30
0.0
 10
20.71572739187418
 20
1.600802752293579
 30
0.0
 10
20.941724153577
 20
1.500618620817073
 30
0.0
 10
21.18464941022281
 20
1.450655307994758
 30
0.0
 10
21.44336500655308
 20
1.450655307994758
 30
0.0
  0
SPLINE
  5
1BD
330
19B
100
AcDbEntity
  8
Default
  6
Continuous
 62
     7
100
AcDbSpline
210
0.0
220
0.0
230
1.0
 70
    11
 71
     3
 72
    49
 73
    45
 74
     0
 42
0.0000000004385322
 43
0.0000000001
 12
1.0
 22
0.0
 32
0.0
 13
1.0
 23
0.0
 33
0.0
 40
0.0
 40
0.0
 40
0.0
 40
0.0
 40
0.0617996483207596
 40
0.0617996483207596
 40
0.0617996483207596
 40
0.1220737652654132
 40
0.1220737652654132
 40
0.1220737652654132
 40
0.1820249318660078
 40
0.1820249318660078
 40
0.1820249318660078
 40
0.2438982680995642
 40
0.2438982680995642
 40
0.3109516975991858
 40
0.3109516975991858
 40
0.3109516975991858
 40
0.3722543214771952
 40
0.3722543214771952
 40
0.3722543214771952
 40
0.4335172266527087
 40
0.4335172266527087
 40
0.4335172266527087
 40
0.4994898970728853
 40
0.4994898970728853
 40
0.5657506577569065
 40
0.5657506577569065
 40
0.5657506577569065
 40
0.626961718898901
 40
0.626961718898901
 40
0.6886100019061948
 40
0.6886100019061948
 40
0.6886100019061948
 40
0.7556907268882871
 40
0.7556907268882871
 40
0.8175892499404324
 40
0.8175892499404324
 40
0.8175892499404324
 40
0.8774725210786118
 40
0.8774725210786118
 40
0.8774725210786118
 40
0.9379094648157675
 40
0.9379094648157675
 40
0.9379094648157675
 40
1.0
 40
1.0
 40
1.0
 40
1.0
 10
21.44336500655308
 20
6.83055373525557
 30
0.0
 10
21.91919464291449
 20
6.832852429151036
 30
0.0
 10
22.37658912188729
 20
6.745085190039319
 30
0.0
 10
22.81317169069462
 20
6.581077981651377
 30
0.0
 10
23.25051470703607
 20
6.416785102496653
 30
0.0
 10
23.63782765399738
 20
6.181454783748363
 30
0.0
 10
23.97508191349934
 20
5.878849934469201
 30
0.0
 10
24.31246764930903
 20
5.576127116722139
 30
0.0
 10
24.58491153342071
 20
5.218201179554391
 30
0.0
 10
24.78587811271298
 20
4.800098296199214
 30
0.0
 10
24.9863762849025
 20
4.38296991497732
 30
0.0
 10
25.08848296199213
 20
3.926933158584535
 30
0.0
 10
25.08848296199213
 20
2.892070773263434
 30
0.0
 10
24.99839449541284
 20
2.402359108781128
 30
0.0
 10
24.81590760157274
 20
1.958846657929228
 30
0.0
 10
24.63260786737497
 20
1.513358696334639
 30
0.0
 10
24.38163499344692
 20
1.129570773263435
 30
0.0
 10
24.06055045871559
 20
0.8038663171690699
 30
0.0
 10
23.7406207864759
 20
0.4793333402928437
 30
0.0
 10
23.3560124508519
 20
0.2286861074705122
 30
0.0
 10
22.90788007863696
 20
0.0485091743119273
 30
0.0
 10
22.46253572118054
 20
-0.1305468044592142
 30
0.0
 10
21.97234600262123
 20
-0.2194462647444295
 30
0.0
 10
20.91207404980341
 20
-0.2194462647444295
 30
0.0
 10
20.42467234600262
 20
-0.1293577981651364
 30
0.0
 10
19.9788499344692
 20
0.0485091743119273
 30
0.0
 10
19.53023971314575
 20
0.2274883817829441
 30
0.0
 10
19.14495412844037
 20
0.4804718217562263
 30
0.0
 10
18.49585517693316
 20
1.129570773263435
 30
0.0
 10
18.24406946264745
 20
1.513024246395807
 30
0.0
 10
18.06158256880734
 20
1.958846657929228
 30
0.0
 10
17.87990551563201
 20
2.402690597965156
 30
0.0
 10
17.78669724770642
 20
2.892070773263434
 30
0.0
 10
17.78669724770642
 20
3.926933158584535
 30
0.0
 10
17.88833551769332
 20
4.384305373525557
 30
0.0
 10
18.0916120576671
 20
4.800098296199214
 30
0.0
 10
18.2953544565906
 20
5.21684411217912
 30
0.0
 10
18.56284403669725
 20
5.57855504587156
 30
0.0
 10
18.90009829619921
 20
5.878849934469201
 30
0.0
 10
19.23849979910015
 20
6.18016634116182
 30
0.0
 10
19.62773591087812
 20
6.414760812581914
 30
0.0
 10
20.06662844036697
 20
6.581077981651377
 30
0.0
 10
20.50677543450266
 20
6.747870526797538
 30
0.0
 10
20.96520314547837
 20
6.82824377457405
 30
0.0
 10
21.44336500655308
 20
6.83055373525557
 30
0.0
  0
LINE
  5
1BE
330
19B
100
AcDbEntity
  8
Default
  6
Continuous
 62
     7
100
AcDbLine
 10
15.3335190039
 20
2.3145806029
 30
0.0
 11
13.8343545216
 21
2.3145806029
 31
0.0
  0
SPLINE
  5
1BF
330
19B
100
AcDbEntity
  8
Default
  6
Continuous
 62
     7
100
AcDbSpline
210
0.0
220
0.0
230
1.0
 70
     8
 71
     3
 72
    43
 73
    39
 74
     0
 42
0.0000000009932047
 43
0.0000000001
 12
1.0
 22
0.0
 32
0.0
 13
1.0
 23
0.0
 33
0.0
 40
0.0
 40
0.0
 40
0.0
 40
0.0
 40
0.0949373847537602
 40
0.0949373847537602
 40
0.0949373847537602
 40
0.1911787086491429
 40
0.1911787086491429
 40
0.2677918678027036
 40
0.2677918678027036
 40
0.2677918678027036
 40
0.3406026976746725
 40
0.3406026976746725
 40
0.3406026976746725
 40
0.4151543081273698
 40
0.4151543081273698
 40
0.4151543081273698
 40
0.4895478942304584
 40
0.4895478942304584
 40
0.5659890102262922
 40
0.5659890102262922
 40
0.6424301262221261
 40
0.6424301262221261
 40
0.6424301262221261
 40
0.714798401889747
 40
0.714798401889747
 40
0.714798401889747
 40
0.7953127750919691
 40
0.7953127750919691
 40
0.8472575319966263
 40
0.8472575319966263
 40
0.8472575319966263
 40
0.898191982468852
 40
0.898191982468852
 40
0.898191982468852
 40
0.9471592991231073
 40
0.9471592991231073
 40
0.9471592991231073
 40
1.0
 40
1.0
 40
1.0
 40
1.0
 10
15.25498034076016
 20
4.25956749672346
 30
0.0
 10
15.1348623853211
 20
4.578342070773264
 30
0.0
 10
14.95468545216252
 20
4.832437745740499
 30
0.0
 10
14.7144495412844
 20
5.024164482306685
 30
0.0
 10
14.47167626156505
 20
5.217916234390401
 30
0.0
 10
14.17622870249017
 20
5.312909567496725
 30
0.0
 10
13.54560943643512
 20
5.312909567496725
 30
0.0
 10
13.30075360419397
 20
5.252850589777196
 30
0.0
 10
13.08361730013106
 20
5.13042267365662
 30
0.0
 10
12.86823374940279
 20
5.008983012075785
 30
0.0
 10
12.69092398427261
 20
4.84629750982962
 30
0.0
 10
12.54770642201835
 20
4.647640891218874
 30
0.0
 10
12.40527884987617
 20
4.450080065344236
 30
0.0
 10
12.29823066841416
 20
4.227228047182176
 30
0.0
 10
12.22662188728703
 20
3.980062254259503
 30
0.0
 10
12.15421681189757
 20
3.730147961786198
 30
0.0
 10
12.11574377457405
 20
3.481110747051115
 30
0.0
 10
12.11574377457405
 20
2.970609436435126
 30
0.0
 10
12.15501310615989
 20
2.721133682830931
 30
0.0
 10
12.30747051114023
 20
2.231422018348625
 30
0.0
 10
12.41834862385321
 20
2.009665792922674
 30
0.0
 10
12.56387614678899
 20
1.815629095674968
 30
0.0
 10
12.7105124508519
 20
1.620114023591089
 30
0.0
 10
12.88958060288335
 20
1.46220511140236
 30
0.0
 10
13.10440694626475
 20
1.344397116644824
 30
0.0
 10
13.32020716906946
 20
1.226055058977723
 30
0.0
 10
13.56870904325033
 20
1.16653014416776
 30
0.0
 10
14.03994102228047
 20
1.16653014416776
 30
0.0
 10
14.21780799475754
 20
1.189629750982963
 30
0.0
 10
14.39105504587156
 20
1.240448885976409
 30
0.0
 10
14.5615512434976
 20
1.290461103946714
 30
0.0
 10
14.7144495412844
 20
1.362876802096987
 30
0.0
 10
14.84842726081258
 20
1.457585190039319
 30
0.0
 10
14.98086470130555
 20
1.551204760042966
 30
0.0
 10
15.08866317169069
 20
1.672411533420708
 30
0.0
 10
15.17644167758847
 20
1.815629095674968
 30
0.0
 10
15.26256022686942
 20
1.956138307659666
 30
0.0
 10
15.31503931847969
 20
2.12285386631717
 30
0.0
 10
15.33351900393184
 20
2.314580602883356
 30
0.0
  0
LINE
  5
1C0
330
19B
100
AcDbEntity
  8
Default
  6
Continuous
 62
     7
100
AcDbLine
 10
16.8835026212
 20
4.9456258191
 30
0.0
 11
15.2549803408
 21
4.2595674967
 31
0.0
  0
SPLINE
  5
1C1
330
19B
100
AcDbEntity
  8
Default
  6
Continuous
 62
     7
100
AcDbSpline
210
0.0
220
0.0
230
1.0
 70
     8
 71
     3
 72
    51
 73
    47
 74
     0
 42
0.0000000004766382
 43
0.0000000001
 12
1.0
 22
0.0
 32
0.0
 13
1.0
 23
0.0
 33
0.0
 40
0.0
 40
0.0
 40
0.0
 40
0.0
 40
0.0095402040290222
 40
0.0095402040290222
 40
0.0095402040290222
 40
0.0400756007423482
 40
0.0400756007423482
 40
0.0400756007423482
 40
0.0693620114069116
 40
0.0693620114069116
 40
0.0986484220714753
 40
0.0986484220714753
 40
0.0986484220714753
 40
0.1302632519246672
 40
0.1302632519246672
 40
0.1302632519246672
 40
0.2055179711079718
 40
0.2055179711079718
 40
0.2055179711079718
 40
0.281182745691462
 40
0.281182745691462
 40
0.3511962093102096
 40
0.3511962093102096
 40
0.3511962093102096
 40
0.4149417185613706
 40
0.4149417185613706
 40
0.4149417185613706
 40
0.4786592191897758
 40
0.4786592191897758
 40
0.4786592191897758
 40
0.5478830793697405
 40
0.5478830793697405
 40
0.6199007276287178
 40
0.6199007276287178
 40
0.6199007276287178
 40
0.6846819262147057
 40
0.6846819262147057
 40
0.6846819262147057
 40
0.7494892886116509
 40
0.7494892886116509
 40
0.7494892886116509
 40
0.8193637744922013
 40
0.8193637744922013
 40
0.9096818872461009
 40
0.9096818872461009
 40
1.0
 40
1.0
 40
1.0
 40
1.0
 10
17.14221821756225
 20
3.658977719528179
 30
0.0
 10
17.14221821756225
 20
3.59275884665793
 30
0.0
 10
17.14221821756225
 20
3.526539973787681
 30
0.0
 10
17.14221821756225
 20
3.460321100917432
 30
0.0
 10
17.14221821756225
 20
3.243184796854522
 30
0.0
 10
17.12835845347313
 20
3.030668414154654
 30
0.0
 10
17.11680865006553
 20
2.825081913499345
 30
0.0
 10
17.10526611434193
 20
2.619624777619178
 30
0.0
 10
17.08446920052425
 20
2.41852883355177
 30
0.0
 10
17.01055045871559
 20
2.021215596330276
 30
0.0
 10
16.95742136304062
 20
1.824868938401049
 30
0.0
 10
16.88350262123198
 20
1.633142201834863
 30
0.0
 10
16.80988280520848
 20
1.442190804023907
 30
0.0
 10
16.70563564875491
 20
1.249688728702491
 30
0.0
 10
16.5670380078637
 20
1.057961992136305
 30
0.0
 10
16.23809819736261
 20
0.6029285876097794
 30
0.0
 10
15.84633027522936
 20
0.2679554390563577
 30
0.0
 10
15.37971821756225
 20
0.06467889908257
 30
0.0
 10
14.91226036066398
 20
-0.1389661078830131
 30
0.0
 10
14.40029488859764
 20
-0.2425458715596323
 30
0.0
 10
13.32847313237222
 20
-0.2425458715596323
 30
0.0
 10
12.85262123197903
 20
-0.1593872870249009
 30
0.0
 10
12.41834862385321
 20
0.0092398427260818
 30
0.0
 10
11.9860833240235
 20
0.1770875389365569
 30
0.0
 10
11.61448230668415
 20
0.4157929226736576
 30
0.0
 10
11.30725753604194
 20
0.7183977719528185
 30
0.0
 10
10.99887791762487
 20
1.022140102874894
 30
0.0
 10
10.76210681520315
 20
1.39059633027523
 30
0.0
 10
10.58885976408912
 20
1.822558977719529
 30
0.0
 10
10.41673087643255
 20
2.251733670943243
 30
0.0
 10
10.33245412844037
 20
2.725753604193972
 30
0.0
 10
10.33245412844037
 20
3.776785714285715
 30
0.0
 10
10.41792267365662
 20
4.264187418086501
 30
0.0
 10
10.58885976408912
 20
4.700769986893841
 30
0.0
 10
10.76010389980871
 20
5.138136765961434
 30
0.0
 10
11.00465268676278
 20
5.511566186107471
 30
0.0
 10
11.31880733944954
 20
5.823410878112714
 30
0.0
 10
11.6318070432484
 20
6.134109113501288
 30
0.0
 10
12.00948558322411
 20
6.373181520314549
 30
0.0
 10
12.44837811271297
 20
6.544118610747052
 30
0.0
 10
12.88849518360602
 20
6.715532627831713
 30
0.0
 10
13.37467234600262
 20
6.795904325032767
 30
0.0
 10
14.58740170380079
 20
6.795904325032767
 30
0.0
 10
15.18106159895151
 20
6.643446920052426
 30
0.0
 10
16.20206422018348
 20
6.033617300131063
 30
0.0
 10
16.59937745740498
 20
5.56931520314548
 30
0.0
 10
16.88350262123198
 20
4.945625819134994
 30
0.0
  0
LINE
  5
1C2
330
19B
100
AcDbEntity
  8
Default
  6
Continuous
 62
     7
100
AcDbLine
 10
13.8343545216
 20
3.6589777195
 30
0.0
 11
17.1422182176
 21
3.6589777195
 31
0.0
  0
LINE
  5
1C3
330
19B
100
AcDbEntity
  8
Default
  6
Continuous
 62
     7
100
AcDbLine
 10
13.8343545216
 20
2.3145806029
 30
0.0
 11
13.8343545216
 21
3.6589777195
 31
0.0
  0
SPLINE
  5
1C4
330
19B
100
AcDbEntity
  8
Default
  6
Continuous
 62
     7
100
AcDbSpline
210
0.0
220
0.0
230
1.0
 70
     8
 71
     3
 72
    16
 73
    12
 74
     0
 42
0.000000000976763
 43
0.0000000001
 12
1.0
 22
0.0
 32
0.0
 13
1.0
 23
0.0
 33
0.0
 40
0.0
 40
0.0
 40
0.0
 40
0.0
 40
0.6164577788718584
 40
0.6164577788718584
 40
0.6164577788718584
 40
0.6381328433885463
 40
0.6381328433885463
 40
0.6607110355934293
 40
0.6607110355934293
 40
0.6607110355934293
 40
1.0
 40
1.0
 40
1.0
 40
1.0
 10
6.022067496723459
 20
0.0000000000000018
 30
0.0
 10
6.022067496723459
 20
2.101294233289647
 30
0.0
 10
6.022067496723459
 20
4.202588466579293
 30
0.0
 10
6.022067496723459
 20
6.303882699868939
 30
0.0
 10
6.022067496723459
 20
6.38473132372215
 30
0.0
 10
6.049787024901704
 20
6.451720183486239
 30
0.0
 10
6.162975098296197
 20
6.564908256880734
 30
0.0
 10
6.229963958060289
 20
6.592627785058978
 30
0.0
 10
6.30850262123198
 20
6.592627785058978
 30
0.0
 10
7.465022935779817
 20
6.592627785058978
 30
0.0
 10
8.621543250327658
 20
6.592627785058978
 30
0.0
 10
9.778063564875495
 20
6.592627785058978
 30
0.0
  0
LINE
  5
1C5
330
19B
100
AcDbEntity
  8
Default
  6
Continuous
 62
     7
100
AcDbLine
 10
9.7780635649
 20
0.0
 30
0.0
 11
6.0220674967
 21
0.0
 31
0.0
  0
LINE
  5
1C6
330
19B
100
AcDbEntity
  8
Default
  6
Continuous
 62
     7
100
AcDbLine
 10
9.7780635649
 20
1.450655308
 30
0.0
 11
9.7780635649
 21
0.0
 31
0.0
  0
LINE
  5
1C7
330
19B
100
AcDbEntity
  8
Default
  6
Continuous
 62
     7
100
AcDbLine
 10
7.731438401
 20
1.450655308
 30
0.0
 11
9.7780635649
 21
1.450655308
 31
0.0
  0
LINE
  5
1C8
330
19B
100
AcDbEntity
  8
Default
  6
Continuous
 62
     7
100
AcDbLine
 10
7.731438401
 20
2.5848460026
 30
0.0
 11
7.731438401
 21
1.450655308
 31
0.0
  0
LINE
  5
1C9
330
19B
100
AcDbEntity
  8
Default
  6
Continuous
 62
     7
100
AcDbLine
 10
9.6787352556
 20
2.5848460026
 30
0.0
 11
7.731438401
 21
2.5848460026
 31
0.0
  0
LINE
  5
1CA
330
19B
100
AcDbEntity
  8
Default
  6
Continuous
 62
     7
100
AcDbLine
 10
9.6787352556
 20
4.0424311927
 30
0.0
 11
9.6787352556
 21
2.5848460026
 31
0.0
  0
LINE
  5
1CB
330
19B
100
AcDbEntity
  8
Default
  6
Continuous
 62
     7
100
AcDbLine
 10
7.731438401
 20
4.0424311927
 30
0.0
 11
9.6787352556
 21
4.0424311927
 31
0.0
  0
LINE
  5
1CC
330
19B
100
AcDbEntity
  8
Default
  6
Continuous
 62
     7
100
AcDbLine
 10
7.731438401
 20
5.1419724771
 30
0.0
 11
7.731438401
 21
4.0424311927
 31
0.0
  0
LINE
  5
1CD
330
19B
100
AcDbEntity
  8
Default
  6
Continuous
 62
     7
100
AcDbLine
 10
9.7780635649
 20
5.1419724771
 30
0.0
 11
7.731438401
 21
5.1419724771
 31
0.0
  0
LINE
  5
1CE
330
19B
100
AcDbEntity
  8
Default
  6
Continuous
 62
     7
100
AcDbLine
 10
9.7780635649
 20
6.5926277851
 30
0.0
 11
9.7780635649
 21
5.1419724771
 31
0.0
  0
LINE
  5
1CF
330
19B
100
AcDbEntity
  8
Default
  6
Continuous
 62
     7
100
AcDbLine
 10
1.7093709043
 20
5.280570118
 30
0.0
 11
1.7093709043
 21
3.6312581913
 31
0.0
  0
LINE
  5
1D0
330
19B
100
AcDbEntity
  8
Default
  6
Continuous
 62
     7
100
AcDbLine
 10
1.7093709043
 20
3.6312581913
 30
0.0
 11
1.8803079948
 21
3.6312581913
 31
0.0
  0
SPLINE
  5
1D1
330
19B
100
AcDbEntity
  8
Default
  6
Continuous
 62
     7
100
AcDbSpline
210
0.0
220
0.0
230
1.0
 70
     8
 71
     3
 72
    29
 73
    25
 74
     0
 42
0.0000000028633018
 43
0.0000000001
 12
1.0
 22
0.0
 32
0.0
 13
1.0
 23
0.0
 33
0.0
 40
0.0
 40
0.0
 40
0.0
 40
0.0
 40
0.1203556671631279
 40
0.1203556671631279
 40
0.1203556671631279
 40
0.2363519504887718
 40
0.2363519504887718
 40
0.2363519504887718
 40
0.3551316836966588
 40
0.3551316836966588
 40
0.4739114169045465
 40
0.4739114169045465
 40
0.5942337440501996
 40
0.5942337440501996
 40
0.7145560711958533
 40
0.7145560711958533
 40
0.7145560711958533
 40
0.8303426976884648
 40
0.8303426976884648
 40
0.8303426976884648
 40
0.9506957818555967
 40
0.9506957818555967
 40
0.9506957818555967
 40
1.0
 40
1.0
 40
1.0
 40
1.0
 10
1.880307994757537
 20
3.631258191349935
 30
0.0
 10
2.018905635648757
 20
3.631258191349935
 30
0.0
 10
2.157503276539977
 20
3.640498034076017
 30
0.0
 10
2.296100917431193
 20
3.661287680209699
 30
0.0
 10
2.436957688573287
 20
3.682416195881014
 30
0.0
 10
2.564056356487548
 20
3.719036697247708
 30
0.0
 10
2.679554390563567
 20
3.776785714285715
 30
0.0
 10
2.795976408912189
 20
3.834996723460025
 30
0.0
 10
2.889760812581915
 20
3.915383355176934
 30
0.0
 10
3.028358453473135
 20
4.132519659239843
 30
0.0
 10
3.063007863695937
 20
4.278047182175624
 30
0.0
 10
3.063007863695937
 20
4.636091087811272
 30
0.0
 10
3.028358453473135
 20
4.779308650065532
 30
0.0
 10
2.889760812581915
 20
4.996444954128441
 30
0.0
 10
2.797362385321101
 20
5.079603538663172
 30
0.0
 10
2.679554390563567
 20
5.13735255570118
 30
0.0
 10
2.564521785639126
 20
5.193741087526886
 30
0.0
 10
2.437008519003932
 20
5.229750982961993
 30
0.0
 10
2.296100917431193
 20
5.250540629095676
 30
0.0
 10
2.157454063805833
 20
5.270996722253517
 30
0.0
 10
2.018905635648757
 20
5.28057011795544
 30
0.0
 10
1.880307994757537
 20
5.28057011795544
 30
0.0
 10
1.823328964613371
 20
5.28057011795544
 30
0.0
 10
1.766349934469201
 20
5.28057011795544
 30
0.0
 10
1.709370904325031
 20
5.28057011795544
 30
0.0
  0
LINE
  5
1D2
330
19B
100
AcDbEntity
  8
Default
  6
Continuous
 62
     7
100
AcDbLine
 10
1.7093709043
 20
0.0
 30
0.0
 11
0.0
 21
0.0
 31
0.0
  0
LINE
  5
1D3
330
19B
100
AcDbEntity
  8
Default
  6
Continuous
 62
     7
100
AcDbLine
 10
1.7093709043
 20
2.5340268676
 30
0.0
 11
1.7093709043
 21
0.0
 31
0.0
  0
LINE
  5
1D4
330
19B
100
AcDbEntity
  8
Default
  6
Continuous
 62
     7
100
AcDbLine
 10
3.3402031455
 20
0.0
 30
0.0
 11
1.7093709043
 21
2.5340268676
 31
0.0
  0
LINE
  5
1D5
330
19B
100
AcDbEntity
  8
Default
  6
Continuous
 62
     7
100
AcDbLine
 10
5.4769167759
 20
0.0
 30
0.0
 11
3.3402031455
 21
0.0
 31
0.0
  0
LINE
  5
1D6
330
19B
100
AcDbEntity
  8
Default
  6
Continuous
 62
     7
100
AcDbLine
 10
3.4002621232
 20
2.7003440367
 30
0.0
 11
5.4769167759
 21
0.0
 31
0.0
  0
SPLINE
  5
1D7
330
19B
100
AcDbEntity
  8
Default
  6
Continuous
 62
     7
100
AcDbSpline
210
0.0
220
0.0
230
1.0
 70
     8
 71
     3
 72
    39
 73
    35
 74
     0
 42
0.0000000006617465
 43
0.0000000001
 12
1.0
 22
0.0
 32
0.0
 13
1.0
 23
0.0
 33
0.0
 40
0.0
 40
0.0
 40
0.0
 40
0.0
 40
0.4184837171182216
 40
0.4184837171182216
 40
0.4184837171182216
 40
0.4329116956232541
 40
0.4329116956232541
 40
0.447940839899329
 40
0.447940839899329
 40
0.447940839899329
 40
0.5989875461512338
 40
0.5989875461512338
 40
0.5989875461512338
 40
0.65983019696195
 40
0.65983019696195
 40
0.65983019696195
 40
0.7141636694202442
 40
0.7141636694202442
 40
0.7141636694202442
 40
0.7672492360561214
 40
0.7672492360561214
 40
0.7672492360561214
 40
0.8311842098663922
 40
0.8311842098663922
 40
0.8732466926363075
 40
0.8732466926363075
 40
0.8732466926363075
 40
0.9147241024096695
 40
0.9147241024096695
 40
0.9147241024096695
 40
0.9560702513872078
 40
0.9560702513872078
 40
0.9560702513872078
 40
1.0
 40
1.0
 40
1.0
 40
1.0
 10
0.0
 20
0.0
 30
0.0
 10
0.0
 20
2.101294233289646
 30
0.0
 10
0.0
 20
4.202588466579293
 30
0.0
 10
0.0
 20
6.303882699868939
 30
0.0
 10
0.0
 20
6.38473132372215
 30
0.0
 10
0.0277195281782454
 20
6.451720183486239
 30
0.0
 10
0.1409076015727422
 20
6.564908256880734
 30
0.0
 10
0.2055865006553077
 20
6.592627785058978
 30
0.0
 10
0.2771952817824364
 20
6.592627785058978
 30
0.0
 10
1.035632372214941
 20
6.592627785058978
 30
0.0
 10
1.794069462647446
 20
6.592627785058977
 30
0.0
 10
2.552506553079947
 20
6.592627785058978
 30
0.0
 10
2.878211009174311
 20
6.592627785058978
 30
0.0
 10
3.180815858453474
 20
6.553358453473132
 30
0.0
 10
3.458011140235911
 20
6.472509829619922
 30
0.0
 10
3.736714364351247
 20
6.39122138925295
 30
0.0
 10
3.977752293577982
 20
6.271543250327655
 30
0.0
 10
4.18333879423329
 20
6.105226081258192
 30
0.0
 10
4.387795784926965
 20
5.939822673056568
 30
0.0
 10
4.550622542595022
 20
5.731012450851901
 30
0.0
 10
4.666120576671034
 20
5.476916775884666
 30
0.0
 10
4.782488801414747
 20
5.220906681448501
 30
0.0
 10
4.839367627785059
 20
4.917906290956751
 30
0.0
 10
4.839367627785059
 20
4.335796199213631
 30
0.0
 10
4.809338138925298
 20
4.116349934469202
 30
0.0
 10
4.744659239842726
 20
3.913073394495413
 30
0.0
 10
4.679525282839784
 20
3.708366672486163
 30
0.0
 10
4.589891874180864
 20
3.520380078636961
 30
0.0
 10
4.467463958060289
 20
3.356372870249018
 30
0.0
 10
4.343928732125118
 20
3.19088228456228
 30
0.0
 10
4.19488859764089
 20
3.049148099606816
 30
0.0
 10
4.014711664482306
 20
2.9336500655308
 30
0.0
 10
3.836171940175813
 20
2.819201524308691
 30
0.0
 10
3.631258191349932
 20
2.739613368283093
 30
0.0
 10
3.400262123197905
 20
2.700344036697248
 30
0.0
  0
HATCH
  5
1D8
330
19B
100
AcDbEntity
  8
Default
  6
Continuous
 62
     7
100
AcDbHatch
 10
0.0
 20
0.0
 30
0.0
210
0.0
220
0.0
230
1.0
  2
SOLID
 70
     1
 71
     0
 91
        2
 92
        1
 93
        6
 72
     4
 94
        3
 73
     0
 74
     0
 95
       39
 96
       35
 40
0.0
 40
0.0
 40
0.0
 40
0.0
 40
0.0439297486127922
 40
0.0439297486127922
 40
0.0439297486127922
 40
0.0852758975903305
 40
0.0852758975903305
 40
0.0852758975903305
 40
0.1267533073636925
 40
0.1267533073636925
 40
0.1267533073636925
 40
0.1688157901336078
 40
0.1688157901336078
 40
0.2327507639438786
 40
0.2327507639438786
 40
0.2327507639438786
 40
0.2858363305797558
 40
0.2858363305797558
 40
0.2858363305797558
 40
0.34016980303805
 40
0.34016980303805
 40
0.34016980303805
 40
0.4010124538487662
 40
0.4010124538487662
 40
0.4010124538487662
 40
0.552059160100671
 40
0.552059160100671
 40
0.552059160100671
 40
0.5670883043767458
 40
0.5670883043767458
 40
0.5815162828817784
 40
0.5815162828817784
 40
0.5815162828817784
 40
1.0
 40
1.0
 40
1.0
 40
1.0
 10
3.400262123197905
 20
2.700344036697248
 10
3.631258191349932
 20
2.739613368283093
 10
3.836171940175813
 20
2.819201524308691
 10
4.014711664482306
 20
2.9336500655308
 10
4.19488859764089
 20
3.049148099606816
 10
4.343928732125118
 20
3.19088228456228
 10
4.467463958060289
 20
3.356372870249018
 10
4.589891874180864
 20
3.520380078636961
 10
4.679525282839784
 20
3.708366672486163
 10
4.744659239842726
 20
3.913073394495413
 10
4.809338138925298
 20
4.116349934469202
 10
4.839367627785059
 20
4.335796199213631
 10
4.839367627785059
 20
4.917906290956751
 10
4.782488801414747
 20
5.220906681448501
 10
4.666120576671034
 20
5.476916775884666
 10
4.550622542595022
 20
5.731012450851901
 10
4.387795784926965
 20
5.939822673056568
 10
4.18333879423329
 20
6.105226081258192
 10
3.977752293577982
 20
6.271543250327655
 10
3.736714364351247
 20
6.39122138925295
 10
3.458011140235911
 20
6.472509829619922
 10
3.180815858453474
 20
6.553358453473132
 10
2.878211009174311
 20
6.592627785058978
 10
2.552506553079947
 20
6.592627785058978
 10
1.794069462647446
 20
6.592627785058977
 10
1.035632372214941
 20
6.592627785058978
 10
0.2771952817824364
 20
6.592627785058978
 10
0.2055865006553077
 20
6.592627785058978
 10
0.1409076015727422
 20
6.564908256880734
 10
0.0277195281782454
 20
6.451720183486239
 10
0.0
 20
6.38473132372215
 10
0.0
 20
6.303882699868939
 10
0.0
 20
4.202588466579293
 10
0.0
 20
2.101294233289646
 10
0.0
 20
0.0
 72
     1
 10
0.0
 20
0.0
 11
1.709370904325033
 21
0.0000000000000009
 72
     1
 10
1.709370904325031
 20
0.0000000000000009
 11
1.709370904325031
 21
2.534026867627786
 72
     1
 10
1.709370904325031
 20
2.534026867627786
 11
3.340203145478373
 21
0.0000000000000004
 72
     1
 10
3.340203145478373
 20
0.0000000000000009
 11
5.476916775884664
 21
0.0000000000000009
 72
     1
 10
5.476916775884668
 20
0.0000000000000009
 11
3.400262123197905
 21
2.700344036697248
 97
        0
 92
        1
 93
        3
 72
     1
 10
1.709370904325031
 20
5.28057011795544
 11
1.709370904325031
 21
3.631258191349935
 72
     1
 10
1.709370904325031
 20
3.631258191349935
 11
1.880307994757535
 21
3.631258191349935
 72
     4
 94
        3
 73
     0
 74
     0
 95
       29
 96
       25
 40
0.0
 40
0.0
 40
0.0
 40
0.0
 40
0.120355667163128
 40
0.120355667163128
 40
0.120355667163128
 40
0.2363519504887718
 40
0.2363519504887718
 40
0.2363519504887718
 40
0.3551316836966587
 40
0.3551316836966587
 40
0.4739114169045465
 40
0.4739114169045465
 40
0.5942337440501996
 40
0.5942337440501996
 40
0.7145560711958533
 40
0.7145560711958533
 40
0.7145560711958533
 40
0.8303426976884648
 40
0.8303426976884648
 40
0.8303426976884648
 40
0.9506957818555967
 40
0.9506957818555967
 40
0.9506957818555967
 40
1.0
 40
1.0
 40
1.0
 40
1.0
 10
1.880307994757537
 20
3.631258191349935
 10
2.018905635648757
 20
3.631258191349935
 10
2.157503276539977
 20
3.640498034076017
 10
2.296100917431193
 20
3.661287680209699
 10
2.436957688573287
 20
3.682416195881014
 10
2.564056356487548
 20
3.719036697247708
 10
2.679554390563567
 20
3.776785714285715
 10
2.795976408912189
 20
3.834996723460025
 10
2.889760812581915
 20
3.915383355176934
 10
3.028358453473135
 20
4.132519659239843
 10
3.063007863695937
 20
4.278047182175624
 10
3.063007863695937
 20
4.636091087811272
 10
3.028358453473135
 20
4.779308650065532
 10
2.889760812581915
 20
4.996444954128441
 10
2.797362385321101
 20
5.079603538663172
 10
2.679554390563567
 20
5.13735255570118
 10
2.564521785639126
 20
5.193741087526886
 10
2.437008519003932
 20
5.229750982961993
 10
2.296100917431193
 20
5.250540629095676
 10
2.157454063805833
 20
5.270996722253517
 10
2.018905635648757
 20
5.28057011795544
 10
1.880307994757537
 20
5.28057011795544
 10
1.823328964613371
 20
5.28057011795544
 10
1.766349934469201
 20
5.28057011795544
 10
1.709370904325031
 20
5.28057011795544
 97
        0
 75
     0
 76
     1
 98
        0
  0
HATCH
  5
1D9
330
19B
100
AcDbEntity
  8
Default
  6
Continuous
 62
     7
100
AcDbHatch
 10
0.0
 20
0.0
 30
0.0
210
0.0
220
0.0
230
1.0
  2
SOLID
 70
     1
 71
     0
 91
        1
 92
        1
 93
       11
 72
     4
 94
        3
 73
     0
 74
     0
 95
       16
 96
       12
 40
0.0
 40
0.0
 40
0.0
 40
0.0
 40
0.3392889644065707
 40
0.3392889644065707
 40
0.3392889644065707
 40
0.3618671566114537
 40
0.3618671566114537
 40
0.3835422211281416
 40
0.3835422211281416
 40
0.3835422211281416
 40
1.0
 40
1.0
 40
1.0
 40
1.0
 10
9.778063564875495
 20
6.592627785058978
 10
8.621543250327658
 20
6.592627785058978
 10
7.465022935779817
 20
6.592627785058978
 10
6.30850262123198
 20
6.592627785058978
 10
6.229963958060289
 20
6.592627785058978
 10
6.162975098296197
 20
6.564908256880734
 10
6.049787024901704
 20
6.451720183486239
 10
6.022067496723459
 20
6.38473132372215
 10
6.022067496723459
 20
6.303882699868939
 10
6.022067496723459
 20
4.202588466579293
 10
6.022067496723459
 20
2.101294233289647
 10
6.022067496723459
 20
0.0000000000000018
 72
     1
 10
6.022067496723459
 20
0.0000000000000018
 11
9.778063564875495
 21
0.0000000000000009
 72
     1
 10
9.778063564875495
 20
0.0000000000000009
 11
9.778063564875495
 21
1.450655307994759
 72
     1
 10
9.778063564875495
 20
1.450655307994758
 11
7.731438401048491
 21
1.450655307994758
 72
     1
 10
7.731438401048493
 20
1.450655307994758
 11
7.731438401048493
 21
2.584846002621233
 72
     1
 10
7.731438401048493
 20
2.584846002621233
 11
9.678735255570121
 21
2.584846002621233
 72
     1
 10
9.678735255570121
 20
2.584846002621233
 11
9.678735255570121
 21
4.042431192660551
 72
     1
 10
9.678735255570121
 20
4.042431192660551
 11
7.731438401048493
 21
4.042431192660551
 72
     1
 10
7.731438401048493
 20
4.042431192660551
 11
7.731438401048493
 21
5.141972477064221
 72
     1
 10
7.731438401048493
 20
5.141972477064221
 11
9.778063564875497
 21
5.141972477064221
 72
     1
 10
9.778063564875495
 20
5.141972477064221
 11
9.778063564875495
 21
6.592627785058978
 97
        0
 75
     0
 76
     1
 98
        0
  0
HATCH
  5
1DA
330
19B
100
AcDbEntity
  8
Default
  6
Continuous
 62
     7
100
AcDbHatch
 10
0.0
 20
0.0
 30
0.0
210
0.0
220
0.0
230
1.0
  2
SOLID
 70
     1
 71
     0
 91
        1
 92
        1
 93
        6
 72
     4
 94
        3
 73
     0
 74
     0
 95
       51
 96
       47
 40
0.0
 40
0.0
 40
0.0
 40
0.0
 40
0.0903181127538991
 40
0.0903181127538991
 40
0.1806362255077987
 40
0.1806362255077987
 40
0.2505107113883491
 40
0.2505107113883491
 40
0.2505107113883491
 40
0.3153180737852943
 40
0.3153180737852943
 40
0.3153180737852943
 40
0.3800992723712822
 40
0.3800992723712822
 40
0.3800992723712822
 40
0.4521169206302595
 40
0.4521169206302595
 40
0.5213407808102242
 40
0.5213407808102242
 40
0.5213407808102242
 40
0.5850582814386294
 40
0.5850582814386294
 40
0.5850582814386294
 40
0.6488037906897904
 40
0.6488037906897904
 40
0.6488037906897904
 40
0.718817254308538
 40
0.718817254308538
 40
0.7944820288920282
 40
0.7944820288920282
 40
0.7944820288920282
 40
0.8697367480753329
 40
0.8697367480753329
 40
0.8697367480753329
 40
0.9013515779285247
 40
0.9013515779285247
 40
0.9013515779285247
 40
0.9306379885930884
 40
0.9306379885930884
 40
0.9599243992576518
 40
0.9599243992576518
 40
0.9599243992576518
 40
0.9904597959709778
 40
0.9904597959709778
 40
0.9904597959709778
 40
1.0
 40
1.0
 40
1.0
 40
1.0
 10
16.88350262123198
 20
4.945625819134994
 10
16.59937745740498
 20
5.56931520314548
 10
16.20206422018348
 20
6.033617300131063
 10
15.18106159895151
 20
6.643446920052426
 10
14.58740170380079
 20
6.795904325032767
 10
13.37467234600262
 20
6.795904325032767
 10
12.88849518360602
 20
6.715532627831713
 10
12.44837811271297
 20
6.544118610747052
 10
12.00948558322411
 20
6.373181520314549
 10
11.6318070432484
 20
6.134109113501288
 10
11.31880733944954
 20
5.823410878112714
 10
11.00465268676278
 20
5.511566186107471
 10
10.76010389980871
 20
5.138136765961434
 10
10.58885976408912
 20
4.700769986893841
 10
10.41792267365662
 20
4.264187418086501
 10
10.33245412844037
 20
3.776785714285715
 10
10.33245412844037
 20
2.725753604193972
 10
10.41673087643255
 20
2.251733670943243
 10
10.58885976408912
 20
1.822558977719529
 10
10.76210681520315
 20
1.39059633027523
 10
10.99887791762487
 20
1.022140102874894
 10
11.30725753604194
 20
0.7183977719528185
 10
11.61448230668415
 20
0.4157929226736576
 10
11.9860833240235
 20
0.1770875389365569
 10
12.41834862385321
 20
0.0092398427260818
 10
12.85262123197903
 20
-0.1593872870249009
 10
13.32847313237222
 20
-0.2425458715596323
 10
14.40029488859764
 20
-0.2425458715596323
 10
14.91226036066398
 20
-0.1389661078830131
 10
15.37971821756225
 20
0.06467889908257
 10
15.84633027522936
 20
0.2679554390563577
 10
16.23809819736261
 20
0.6029285876097794
 10
16.5670380078637
 20
1.057961992136305
 10
16.70563564875491
 20
1.249688728702491
 10
16.80988280520848
 20
1.442190804023907
 10
16.88350262123198
 20
1.633142201834863
 10
16.95742136304062
 20
1.824868938401049
 10
17.01055045871559
 20
2.021215596330276
 10
17.08446920052425
 20
2.41852883355177
 10
17.10526611434193
 20
2.619624777619178
 10
17.11680865006553
 20
2.825081913499345
 10
17.12835845347313
 20
3.030668414154654
 10
17.14221821756225
 20
3.243184796854522
 10
17.14221821756225
 20
3.460321100917432
 10
17.14221821756225
 20
3.526539973787681
 10
17.14221821756225
 20
3.59275884665793
 10
17.14221821756225
 20
3.658977719528179
 72
     1
 10
17.14221821756225
 20
3.658977719528179
 11
13.83435452162517
 21
3.658977719528179
 72
     1
 10
13.83435452162517
 20
3.658977719528179
 11
13.83435452162517
 21
2.314580602883356
 72
     1
 10
13.83435452162517
 20
2.314580602883356
 11
15.33351900393184
 21
2.314580602883356
 72
     4
 94
        3
 73
     0
 74
     0
 95
       43
 96
       39
 40
0.0
 40
0.0
 40
0.0
 40
0.0
 40
0.0528407008768927
 40
0.0528407008768927
 40
0.0528407008768927
 40
0.101808017531148
 40
0.101808017531148
 40
0.101808017531148
 40
0.1527424680033737
 40
0.1527424680033737
 40
0.1527424680033737
 40
0.2046872249080309
 40
0.2046872249080309
 40
0.285201598110253
 40
0.285201598110253
 40
0.285201598110253
 40
0.3575698737778739
 40
0.3575698737778739
 40
0.3575698737778739
 40
0.4340109897737078
 40
0.4340109897737078
 40
0.5104521057695417
 40
0.5104521057695417
 40
0.5848456918726302
 40
0.5848456918726302
 40
0.5848456918726302
 40
0.6593973023253275
 40
0.6593973023253275
 40
0.6593973023253275
 40
0.7322081321972964
 40
0.7322081321972964
 40
0.7322081321972964
 40
0.808821291350857
 40
0.808821291350857
 40
0.9050626152462398
 40
0.9050626152462398
 40
0.9050626152462398
 40
1.0
 40
1.0
 40
1.0
 40
1.0
 10
15.33351900393184
 20
2.314580602883356
 10
15.31503931847969
 20
2.12285386631717
 10
15.26256022686942
 20
1.956138307659666
 10
15.17644167758847
 20
1.815629095674968
 10
15.08866317169069
 20
1.672411533420708
 10
14.98086470130555
 20
1.551204760042966
 10
14.84842726081258
 20
1.457585190039319
 10
14.7144495412844
 20
1.362876802096987
 10
14.5615512434976
 20
1.290461103946714
 10
14.39105504587156
 20
1.240448885976409
 10
14.21780799475754
 20
1.189629750982963
 10
14.03994102228047
 20
1.16653014416776
 10
13.56870904325033
 20
1.16653014416776
 10
13.32020716906946
 20
1.226055058977723
 10
13.10440694626475
 20
1.344397116644824
 10
12.88958060288335
 20
1.46220511140236
 10
12.7105124508519
 20
1.620114023591089
 10
12.56387614678899
 20
1.815629095674968
 10
12.41834862385321
 20
2.009665792922674
 10
12.30747051114023
 20
2.231422018348625
 10
12.15501310615989
 20
2.721133682830931
 10
12.11574377457405
 20
2.970609436435126
 10
12.11574377457405
 20
3.481110747051115
 10
12.15421681189757
 20
3.730147961786198
 10
12.22662188728703
 20
3.980062254259503
 10
12.29823066841416
 20
4.227228047182176
 10
12.40527884987617
 20
4.450080065344236
 10
12.54770642201835
 20
4.647640891218874
 10
12.69092398427261
 20
4.84629750982962
 10
12.86823374940279
 20
5.008983012075785
 10
13.08361730013106
 20
5.13042267365662
 10
13.30075360419397
 20
5.252850589777196
 10
13.54560943643512
 20
5.312909567496725
 10
14.17622870249017
 20
5.312909567496725
 10
14.47167626156505
 20
5.217916234390401
 10
14.7144495412844
 20
5.024164482306685
 10
14.95468545216252
 20
4.832437745740499
 10
15.1348623853211
 20
4.578342070773264
 10
15.25498034076016
 20
4.25956749672346
 72
     1
 10
15.25498034076016
 20
4.25956749672346
 11
16.88350262123198
 21
4.945625819134994
 97
        0
 75
     0
 76
     1
 98
        0
  0
HATCH
  5
1DB
330
19B
100
AcDbEntity
  8
Default
  6
Continuous
 62
     7
100
AcDbHatch
 10
0.0
 20
0.0
 30
0.0
210
0.0
220
0.0
230
1.0
  2
SOLID
 70
     1
 71
     0
 91
        2
 92
        1
 93
        1
 72
     4
 94
        3
 73
     0
 74
     0
 95
       49
 96
       45
 40
0.0
 40
0.0
 40
0.0
 40
0.0
 40
0.0620905351842325
 40
0.0620905351842325
 40
0.0620905351842325
 40
0.1225274789213882
 40
0.1225274789213882
 40
0.1225274789213882
 40
0.1824107500595676
 40
0.1824107500595676
 40
0.1824107500595676
 40
0.2443092731117129
 40
0.2443092731117129
 40
0.3113899980938052
 40
0.3113899980938052
 40
0.3113899980938052
 40
0.373038281101099
 40
0.373038281101099
 40
0.4342493422430935
 40
0.4342493422430935
 40
0.4342493422430935
 40
0.5005101029271146
 40
0.5005101029271146
 40
0.5664827733472912
 40
0.5664827733472912
 40
0.5664827733472912
 40
0.6277456785228048
 40
0.6277456785228048
 40
0.6277456785228048
 40
0.6890483024008142
 40
0.6890483024008142
 40
0.6890483024008142
 40
0.7561017319004357
 40
0.7561017319004357
 40
0.8179750681339922
 40
0.8179750681339922
 40
0.8179750681339922
 40
0.8779262347345869
 40
0.8779262347345869
 40
0.8779262347345869
 40
0.9382003516792404
 40
0.9382003516792404
 40
0.9382003516792404
 40
1.0
 40
1.0
 40
1.0
 40
1.0
 10
21.44336500655308
 20
6.83055373525557
 10
20.96520314547837
 20
6.82824377457405
 10
20.50677543450266
 20
6.747870526797538
 10
20.06662844036697
 20
6.581077981651377
 10
19.62773591087812
 20
6.414760812581914
 10
19.23849979910015
 20
6.18016634116182
 10
18.90009829619921
 20
5.878849934469201
 10
18.56284403669725
 20
5.57855504587156
 10
18.2953544565906
 20
5.21684411217912
 10
18.0916120576671
 20
4.800098296199214
 10
17.88833551769332
 20
4.384305373525557
 10
17.78669724770642
 20
3.926933158584535
 10
17.78669724770642
 20
2.892070773263434
 10
17.87990551563201
 20
2.402690597965156
 10
18.06158256880734
 20
1.958846657929228
 10
18.24406946264745
 20
1.513024246395807
 10
18.49585517693316
 20
1.129570773263435
 10
19.14495412844037
 20
0.4804718217562263
 10
19.53023971314575
 20
0.2274883817829441
 10
19.9788499344692
 20
0.0485091743119273
 10
20.42467234600262
 20
-0.1293577981651364
 10
20.91207404980341
 20
-0.2194462647444295
 10
21.97234600262123
 20
-0.2194462647444295
 10
22.46253572118054
 20
-0.1305468044592142
 10
22.90788007863696
 20
0.0485091743119273
 10
23.3560124508519
 20
0.2286861074705122
 10
23.7406207864759
 20
0.4793333402928437
 10
24.06055045871559
 20
0.8038663171690699
 10
24.38163499344692
 20
1.129570773263435
 10
24.63260786737497
 20
1.513358696334639
 10
24.81590760157274
 20
1.958846657929228
 10
24.99839449541284
 20
2.402359108781128
 10
25.08848296199213
 20
2.892070773263434
 10
25.08848296199213
 20
3.926933158584535
 10
24.9863762849025
 20
4.38296991497732
 10
24.78587811271298
 20
4.800098296199214
 10
24.58491153342071
 20
5.218201179554391
 10
24.31246764930903
 20
5.576127116722139
 10
23.97508191349934
 20
5.878849934469201
 10
23.63782765399738
 20
6.181454783748363
 10
23.25051470703607
 20
6.416785102496653
 10
22.81317169069462
 20
6.581077981651377
 10
22.37658912188729
 20
6.745085190039319
 10
21.91919464291449
 20
6.832852429151036
 10
21.44336500655308
 20
6.83055373525557
 97
        0
 92
        1
 93
        1
 72
     4
 94
        3
 73
     0
 74
     0
 95
       47
 96
       43
 40
0.0
 40
0.0
 40
0.0
 40
0.0
 40
0.0637917384076936
 40
0.0637917384076936
 40
0.0637917384076936
 40
0.1265834997779105
 40
0.1265834997779105
 40
0.1893752611481285
 40
0.1893752611481285
 40
0.1893752611481285
 40
0.2604081010642026
 40
0.2604081010642026
 40
0.3159741129340349
 40
0.3159741129340349
 40
0.3159741129340349
 40
0.3751091105868485
 40
0.3751091105868485
 40
0.3751091105868485
 40
0.435995169879425
 40
0.435995169879425
 40
0.435995169879425
 40
0.4997689343159712
 40
0.4997689343159712
 40
0.5635426987525196
 40
0.5635426987525196
 40
0.5635426987525196
 40
0.624232315369434
 40
0.624232315369434
 40
0.624232315369434
 40
0.6835869381889372
 40
0.6835869381889372
 40
0.6835869381889372
 40
0.7357943705008892
 40
0.7357943705008892
 40
0.8025337685079206
 40
0.8025337685079206
 40
0.8692731665149518
 40
0.8692731665149518
 40
0.9360125645219831
 40
0.9360125645219831
 40
0.9360125645219831
 40
1.0
 40
1.0
 40
1.0
 40
1.0
 10
21.44336500655308
 20
1.450655307994758
 10
21.70208060288335
 20
1.450655307994758
 10
21.94462647444299
 20
1.501474442988205
 10
22.16869266055046
 20
1.600802752293579
 10
22.39468942225328
 20
1.700986883770089
 10
22.5937254259502
 20
1.836418741808651
 10
22.93097968545217
 20
2.187532765399738
 10
23.06495740498034
 20
2.395429226736567
 10
23.15966579292267
 20
2.63335517693316
 10
23.25469013236262
 20
2.87207485894082
 10
23.30519331585845
 20
3.132306684141548
 10
23.30519331585845
 20
3.642807994757537
 10
23.25668414154652
 20
3.862254259501967
 10
23.15966579292267
 20
4.074770642201835
 10
23.06391850987524
 20
4.284502786020031
 10
22.93097968545217
 20
4.472083879423329
 10
22.76235255570118
 20
4.636091087811272
 10
22.59487996078263
 20
4.798975392458079
 10
22.39506880733945
 20
4.927146133682831
 10
22.16869266055046
 20
5.021854521625164
 10
21.94345992894685
 20
5.116084541989939
 10
21.70208060288335
 20
5.167382044560944
 10
21.18464941022281
 20
5.167382044560944
 10
20.94210353866317
 20
5.118872870249017
 10
20.71572739187418
 20
5.021854521625164
 10
20.49213912866634
 20
4.926030980250372
 10
20.29300458715597
 20
4.797788335517694
 10
20.12437745740498
 20
4.636091087811272
 10
19.95459636352431
 20
4.473287299158574
 10
19.82177260812581
 20
4.284977064220183
 10
19.72244429882045
 20
4.074770642201835
 10
19.62222370164274
 20
3.86267589003505
 10
19.57229685452162
 20
3.642807994757537
 10
19.57229685452162
 20
3.132306684141548
 10
19.62311598951508
 20
2.871281127129752
 10
19.82177260812581
 20
2.395429226736567
 10
19.95575032765399
 20
2.187532765399738
 10
20.29300458715597
 20
1.836418741808651
 10
20.49166120576671
 20
1.700131061598952
 10
20.71572739187418
 20
1.600802752293579
 10
20.941724153577
 20
1.500618620817073
 10
21.18464941022281
 20
1.450655307994758
 10
21.44336500655308
 20
1.450655307994758
 97
        0
 75
     0
 76
     1
 98
        0
  0
HATCH
  5
1DC
330
19B
100
AcDbEntity
  8
Default
  6
Continuous
 62
     7
100
AcDbHatch
 10
0.0
 20
0.0
 30
0.0
210
0.0
220
0.0
230
1.0
  2
SOLID
 70
     1
 71
     0
 91
        1
 92
        1
 93
        4
 72
     1
 10
28.07064220183486
 20
2.584846002621233
 11
28.07064220183486
 21
4.042431192660551
 72
     1
 10
28.07064220183486
 20
4.042431192660551
 11
25.93623853211009
 21
4.042431192660551
 72
     1
 10
25.93623853211009
 20
4.042431192660551
 11
25.93623853211009
 21
2.584846002621233
 72
     1
 10
25.93623853211009
 20
2.584846002621233
 11
28.07064220183486
 21
2.584846002621233
 97
        0
 75
     0
 76
     1
 98
        0
  0
HATCH
  5
1DD
330
19B
100
AcDbEntity
  8
Default
  6
Continuous
 62
     7
100
AcDbHatch
 10
0.0
 20
0.0
 30
0.0
210
0.0
220
0.0
230
1.0
  2
SOLID
 70
     1
 71
     0
 91
        1
 92
        1
 93
        9
 72
     4
 94
        3
 73
     0
 74
     0
 95
       16
 96
       12
 40
0.0
 40
0.0
 40
0.0
 40
0.0
 40
0.3396620468027166
 40
0.3396620468027166
 40
0.3396620468027166
 40
0.3623316833330921
 40
0.3623316833330921
 40
0.3840945344022499
 40
0.3840945344022499
 40
0.3840945344022499
 40
1.0
 40
1.0
 40
1.0
 40
1.0
 10
32.58661533420707
 20
6.592627785058978
 10
31.42778505897771
 20
6.592627785058978
 10
30.26895478374836
 20
6.592627785058978
 10
29.110124508519
 20
6.592627785058978
 10
29.02927588466579
 20
6.592627785058978
 10
28.96228702490171
 20
6.564908256880734
 10
28.84909895150721
 20
6.451720183486239
 10
28.82137942332896
 20
6.38473132372215
 10
28.82137942332896
 20
6.303882699868939
 10
28.82137942332896
 20
4.202588466579293
 10
28.82137942332896
 20
2.101294233289646
 10
28.82137942332896
 20
0.0
 72
     1
 10
28.82137942332896
 20
0.0
 11
30.53999017038007
 21
0.0000000000000009
 72
     1
 10
30.53999017038007
 20
0.0000000000000009
 11
30.53999017038007
 21
2.584846002621234
 72
     1
 10
30.53999017038007
 20
2.584846002621234
 11
32.4872870249017
 21
2.584846002621233
 72
     1
 10
32.4872870249017
 20
2.584846002621233
 11
32.4872870249017
 21
4.042431192660551
 72
     1
 10
32.4872870249017
 20
4.042431192660551
 11
30.53999017038007
 21
4.042431192660551
 72
     1
 10
30.53999017038007
 20
4.042431192660551
 11
30.53999017038007
 21
5.141972477064221
 72
     1
 10
30.53999017038007
 20
5.141972477064221
 11
32.58661533420707
 21
5.141972477064221
 72
     1
 10
32.58661533420707
 20
5.141972477064221
 11
32.58661533420707
 21
6.592627785058978
 97
        0
 75
     0
 76
     1
 98
        0
  0
HATCH
  5
1DE
330
19B
100
AcDbEntity
  8
Default
  6
Continuous
 62
     7
100
AcDbHatch
 10
0.0
 20
0.0
 30
0.0
210
0.0
220
0.0
230
1.0
  2
SOLID
 70
     1
 71
     0
 91
        1
 92
        1
 93
        4
 72
     4
 94
        3
 73
     0
 74
     0
 95
       14
 96
       10
 40
0.0
 40
0.0
 40
0.0
 40
0.0
 40
0.7580098693161609
 40
0.7580098693161609
 40
0.7580098693161609
 40
0.8789822868889446
 40
0.8789822868889446
 40
0.8789822868889446
 40
1.0
 40
1.0
 40
1.0
 40
1.0
 10
35.18532110091743
 20
6.608797509829621
 10
34.71100917431193
 20
6.608797509829621
 10
34.23669724770642
 20
6.608797509829621
 10
33.76238532110091
 20
6.608797509829621
 10
33.68153669724771
 20
6.608797509829621
 10
33.61680971405436
 20
6.578721860223512
 10
33.55910878112713
 20
6.523328964613368
 10
33.50135976408912
 20
6.467889908256881
 10
33.47364023591088
 20
6.400901048492791
 10
33.47364023591088
 20
6.320052424639582
 72
     1
 10
33.47364023591088
 20
6.320052424639582
 11
33.47364023591088
 21
0.0000000000000009
 72
     1
 10
33.47364023591088
 20
0.0000000000000009
 11
35.18532110091743
 21
0.0000000000000009
 72
     1
 10
35.18532110091743
 20
0.0000000000000009
 11
35.18532110091743
 21
6.608797509829621
 97
        0
 75
     0
 76
     1
 98
        0
  0
HATCH
  5
1DF
330
19B
100
AcDbEntity
  8
Default
  6
Continuous
 62
     7
100
AcDbHatch
 10
0.0
 20
0.0
 30
0.0
210
0.0
220
0.0
230
1.0
  2
SOLID
 70
     1
 71
     0
 91
        1
 92
        1
 93
       12
 72
     1
 10
39.22313237221493
 20
4.885566841415466
 11
38.20905963302751
 21
6.592627785058978
 72
     1
 10
38.20905963302752
 20
6.592627785058978
 11
36.10468545216251
 21
6.592627785058978
 72
     1
 10
36.10468545216251
 20
6.592627785058978
 11
38.20905963302751
 21
3.525
 72
     1
 10
38.20905963302752
 20
3.525000000000001
 11
35.62652359108781
 21
0.0000000000000013
 72
     1
 10
35.6265235910878
 20
0.0000000000000009
 11
37.70317824377457
 21
0.0000000000000009
 72
     1
 10
37.70317824377457
 20
0.0000000000000009
 11
39.22313237221493
 21
2.145953473132373
 72
     1
 10
39.22313237221493
 20
2.145953473132373
 11
40.25568479685452
 21
0.5266710353866326
 72
     1
 10
40.25568479685452
 20
0.5266710353866322
 11
41.28823722149409
 21
1.995806028833553
 72
     1
 10
41.28823722149409
 20
1.995806028833553
 11
40.22565530799475
 21
3.525000000000001
 72
     1
 10
40.22565530799475
 20
3.525000000000001
 11
42.34157929226736
 21
6.592627785058978
 72
     1
 10
42.34157929226736
 20
6.592627785058978
 11
40.22565530799475
 21
6.592627785058978
 72
     1
 10
40.22565530799475
 20
6.592627785058978
 11
39.22313237221493
 21
4.885566841415466
 97
        0
 75
     0
 76
     1
 98
        0
  0
HATCH
  5
1E0
330
19B
100
AcDbEntity
  8
Default
  6
Continuous
 62
     7
100
AcDbHatch
 10
0.0
 20
0.0
 30
0.0
210
0.0
220
0.0
230
1.0
  2
SOLID
 70
     1
 71
     0
 91
        1
 92
        1
 93
        3
 72
     4
 94
        3
 73
     0
 74
     0
 95
       13
 96
        9
 40
0.0
 40
0.0
 40
0.0
 40
0.0
 40
0.0445094381088423
 40
0.0445094381088423
 40
0.0908355879772283
 40
0.0908355879772283
 40
0.0908355879772283
 40
1.0
 40
1.0
 40
1.0
 40
1.0
 10
45.71181192660551
 20
6.414760812581914
 10
45.61941349934469
 20
6.53256880733945
 10
45.51546526867628
 20
6.592627785058978
 10
45.28446920052424
 20
6.592627785058978
 10
45.18660375034128
 20
6.531537694833034
 10
45.10429226736566
 20
6.414760812581914
 10
43.69752621231979
 20
4.418954783748362
 10
42.29076015727392
 20
2.423148754914811
 10
40.88399410222804
 20
0.427342726081259
 72
     4
 94
        3
 73
     0
 74
     0
 95
       11
 96
        7
 40
0.0
 40
0.0
 40
0.0
 40
0.0
 40
0.3439066424360135
 40
0.3439066424360135
 40
0.3439066424360135
 40
1.0
 40
1.0
 40
1.0
 40
1.0
 10
40.88399410222804
 20
0.427342726081259
 10
40.83086500655307
 20
0.3418741808650076
 10
40.80230295367286
 20
0.2725253209688669
 10
40.80314547837483
 20
0.2194462647444313
 10
40.80545543905635
 20
0.0739187418086509
 10
40.90709370904325
 20
0.0000000000000009
 10
41.11268020969855
 20
0.0000000000000009
 72
     4
 94
        3
 73
     0
 74
     0
 95
       16
 96
       12
 40
0.0
 40
0.0
 40
0.0
 40
0.0
 40
0.5188870924081099
 40
0.5188870924081099
 40
0.5188870924081099
 40
0.544909989588877
 40
0.544909989588877
 40
0.5581347406151689
 40
0.5581347406151689
 40
0.5581347406151689
 40
1.0
 40
1.0
 40
1.0
 40
1.0
 10
41.11268020969855
 20
0.0000000000000009
 10
43.98011140235911
 20
0.0000000000000009
 10
46.84754259501965
 20
0.0000000000000009
 10
49.71497378768021
 20
0.0000000000000009
 10
49.91363040629096
 20
0.0000000000000009
 10
50.01295871559633
 20
0.0692988204456104
 10
50.01295871559633
 20
0.281815203145479
 10
49.98455330475264
 20
0.352940532254955
 10
49.93211009174313
 20
0.427342726081259
 10
48.52534403669725
 20
2.42314875491481
 10
47.11857798165137
 20
4.418954783748362
 10
45.71181192660551
 20
6.414760812581914
 97
        0
 75
     0
 76
     1
 98
        0
  0
ENDBLK
  5
1E2
330
19B
100
AcDbEntity
  8
0
100
AcDbBlockEnd
  0
BLOCK
  5
1EC
330
1E3
100
AcDbEntity
  8
0
100
AcDbBlockBegin
  2
RF-Massblatt_2016
 70
     0
 10
0.0
 20
0.0
 30
0.0
  3
RF-Massblatt_2016
  1

  0
MTEXT
  5
1E4
102
{ACAD_XDICTIONARY
360
1F6
102
}
330
1E3
100
AcDbEntity
  8
Default
100
AcDbMText
 10
15.2206856049
 20
34.8070876502
 30
0.0
 40
2.5
 41
48.9706096033
 71
     1
 72
     1
  3
{\fVectora Com 45 Light|b1||i0||c0|p34;\C7;\H2.5;\W1.;REGO-FIX AG\P}{\fVectora Com 45 Light|b0||i0||c0|p34;\C7;\H2.5;\W1.;Obermattweg 60\P}{\fVectora Com 45 Light|b0||i0||c0|p34;\C7;\H2.5;\W1.;4456 Tenniken / Switzerland\P}{\fVectora Com 45 Light|b0
  3
||i0||c0|p34;\C7;\H2.5;\W1.;\P}{\fVectora Com 45 Light|b0||i0||c0|p34;\C7;\H2.5;\W1.;P +41 61 976 14 66\P}{\fVectora Com 45 Light|b0||i0||c0|p34;\C7;\H2.5;\W1.;F +41 61 976 14 14\P}{\fVectora Com 45 Light|b1||i0||c0|p34;\C7;\H2.5;\W1.;www.rego-fix.c
  1
om}
 73
     1
 44
1.0
1001
ACAD
1000
ACAD_MTEXT_DEFINED_HEIGHT_BEGIN
1070
    46
1040
31.3191355437
1000
ACAD_MTEXT_DEFINED_HEIGHT_END
  0
MTEXT
  5
1E5
102
{ACAD_XDICTIONARY
360
1F8
102
}
330
1E3
100
AcDbEntity
  8
Default
100
AcDbMText
 10
90.3836341545
 20
34.4892285804
 30
0.0
 40
2.5
 41
104.0282149141
 71
     1
 72
     1
  3
{\fSolid Edge ISO|b0||i0||c0|p34;\C7;\H2.;\W1.;This is a non-controlled copy. All information given herein is subject to change without notice\P}{\fSolid Edge ISO|b0||i0||c0|p34;\C7;\H2.;\W1.;\P}{\fSolid Edge ISO|b0||i0||c0|p34;\C7;\H2.;\W1.;The inf
  3
ormation given herein has been carefully checked and is believed to be correct. REGO-FIX,\P}{\fSolid Edge ISO|b0||i0||c0|p34;\C7;\H2.;\W1.;however, assumes no responsibility or liability for any errors, inaccuracies or omissions that may appear\P}{\
  3
fSolid Edge ISO|b0||i0||c0|p34;\C7;\H2.;\W1.;in this drawing\P}{\fSolid Edge ISO|b0||i0||c0|p34;\C7;\H2.;\W1.;\P}{\fSolid Edge ISO|b0||i0||c0|p34;\C7;\H2.;\W1.;This document is subject to copyright laws. No part of this document may be reproduced or
  3
 transmitted\P}{\fSolid Edge ISO|b0||i0||c0|p34;\C7;\H2.;\W1.;in any form or any means, electronic or mechanic, for any purpose, without the express written permission\P}{\fSolid Edge ISO|b0||i0||c0|p34;\C7;\H2.;\W1.;of REGO-FIX\P}{\fSolid Edge ISO|
  1
b0||i0||c0|p34;\C7;\H1.5;\W1.;\P}
 73
     1
 44
1.0
1001
ACAD
1000
ACAD_MTEXT_DEFINED_HEIGHT_BEGIN
1070
    46
1040
38.4545554545
1000
ACAD_MTEXT_DEFINED_HEIGHT_END
  0
INSERT
  5
1E6
330
1E3
100
AcDbEntity
  8
Default
100
AcDbBlockReference
  2
SEANNOT_GROUP
 10
0.0
 20
0.0
 30
0.0
  0
INSERT
  5
1E7
330
1E3
100
AcDbEntity
  8
Default
100
AcDbBlockReference
  2
SEANNOT_GROUP1
 10
0.0
 20
0.0
 30
0.0
  0
MTEXT
  5
1E8
102
{ACAD_XDICTIONARY
360
1FA
102
}
330
1E3
100
AcDbEntity
  8
Default
100
AcDbMText
 10
219.0323311835
 20
34.8066733186
 30
0.0
 40
2.5
 41
20.1335141444
 71
     1
 72
     1
  3
{\fVectora Com 45 Light|b0||i0||c0|p34;\C7;\H3.5;\W1.;Type :\P}{\fVectora Com 45 Light|b0||i0||c0|p34;\C7;\H3.5;\W1.;Part No. :\P}{\fVectora Com 45 Light|b0||i0||c0|p34;\C7;\H3.5;\W1.;Date : \P}{\fVectora Com 45 Light|b0||i0||c0|p34;\C7;\H3.5;\W1.;S
  1
cale :}
 73
     1
 44
1.0
1001
ACAD
1000
ACAD_MTEXT_DEFINED_HEIGHT_BEGIN
1070
    46
1040
23.6666666667
1000
ACAD_MTEXT_DEFINED_HEIGHT_END
  0
INSERT
  5
1E9
330
1E3
100
AcDbEntity
  8
Default
100
AcDbBlockReference
  2
SEANNOT_GROUP2
 10
0.0
 20
0.0
 30
0.0
  0
INSERT
  5
1EA
330
1E3
100
AcDbEntity
  8
Default
100
AcDbBlockReference
  2
SEANNOT_GROUP3
 10
0.0
 20
0.0
 30
0.0
  0
INSERT
  5
1EB
330
1E3
100
AcDbEntity
  8
Default
 62
     7
100
AcDbBlockReference
  2
Block1
 10
227.000440997
 20
183.1186606679
 30
0.0
  0
ENDBLK
  5
1ED
330
1E3
100
AcDbEntity
  8
0
100
AcDbBlockEnd
  0
ENDSEC
  0
SECTION
  2
ENTITIES
  0
INSERT
  5
41
330
1F
100
AcDbEntity
  8
Default
100
AcDbBlockReference
  2
SE
 10
0.0
 20
0.0
 30
0.0
  0
INSERT
  5
156
330
1F
100
AcDbEntity
  8
Default
100
AcDbBlockReference
  2
GDimGGroup
 10
0.0
 20
0.0
 30
0.0
  0
INSERT
  5
161
330
1F
100
AcDbEntity
  8
Default
100
AcDbBlockReference
  2
GDimGGroup1
 10
0.0
 20
0.0
 30
0.0
  0
INSERT
  5
16B
330
1F
100
AcDbEntity
  8
Default
100
AcDbBlockReference
  2
GDimGGroup2
 10
0.0
 20
0.0
 30
0.0
  0
INSERT
  5
176
330
1F
100
AcDbEntity
  8
Default
100
AcDbBlockReference
  2
GDimGGroup3
 10
0.0
 20
0.0
 30
0.0
  0
INSERT
  5
180
330
1F
100
AcDbEntity
  8
Default
100
AcDbBlockReference
  2
GDimGGroup4
 10
0.0
 20
0.0
 30
0.0
  0
INSERT
  5
1EE
330
1F
100
AcDbEntity
  8
Default
 62
     7
100
AcDbBlockReference
  2
RF-Massblatt_2016
 10
0.0
 20
0.0
 30
0.0
  0
ENDSEC
  0
SECTION
  2
OBJECTS
  0
DICTIONARY
  5
C
330
0
100
AcDbDictionary
281
     1
  3
ACAD_GROUP
350
D
  3
ACAD_LAYOUT
350
1A
  3
ACAD_MATERIAL
350
3B
  3
ACAD_MLEADERSTYLE
350
1F1
  3
ACAD_MLINESTYLE
350
17
  3
ACAD_PLOTSETTINGS
350
19
  3
ACAD_PLOTSTYLENAME
350
E
  3
ACAD_VISUALSTYLE
350
2A
  3
AcDbVariableDictionary
350
1EF
  0
DICTIONARY
  5
1F6
330
1E4
100
AcDbDictionary
280
     1
281
     1
  3
ACAD_MTEXT_RT
360
1F7
  0
DICTIONARY
  5
1F8
330
1E5
100
AcDbDictionary
280
     1
281
     1
  3
ACAD_MTEXT_RT
360
1F9
  0
DICTIONARY
  5
1FA
330
1E8
100
AcDbDictionary
280
     1
281
     1
  3
ACAD_MTEXT_RT
360
1FB
  0
DICTIONARY
  5
D
102
{ACAD_REACTORS
330
C
102
}
330
C
100
AcDbDictionary
281
     1
  0
DICTIONARY
  5
1A
102
{ACAD_REACTORS
330
C
102
}
330
C
100
AcDbDictionary
281
     1
  3
Layout1
350
1E
  3
Model
350
22
  0
DICTIONARY
  5
3B
102
{ACAD_REACTORS
330
C
102
}
330
C
100
AcDbDictionary
281
     1
  3
ByBlock
350
3D
  3
ByLayer
350
3C
  3
Global
350
3E
  0
DICTIONARY
  5
1F1
102
{ACAD_REACTORS
330
C
102
}
330
C
100
AcDbDictionary
281
     1
  0
DICTIONARY
  5
17
102
{ACAD_REACTORS
330
C
102
}
330
C
100
AcDbDictionary
281
     1
  3
Standard
350
18
  0
DICTIONARY
  5
19
102
{ACAD_REACTORS
330
C
102
}
330
C
100
AcDbDictionary
281
     1
  0
ACDBDICTIONARYWDFLT
  5
E
102
{ACAD_REACTORS
330
C
102
}
330
C
100
AcDbDictionary
281
     1
  3
Normal
350
F
100
AcDbDictionaryWithDefault
340
F
  0
DICTIONARY
  5
2A
102
{ACAD_REACTORS
330
C
102
}
330
C
100
AcDbDictionary
281
     1
  3
2dWireframe
350
2F
  3
3D Hidden
350
31
  3
3dWireframe
350
30
  3
Basic
350
32
  3
Brighten
350
36
  3
ColorChange
350
3A
  3
Conceptual
350
34
  3
Dim
350
35
  3
Facepattern
350
39
  3
Flat
350
2B
  3
FlatWithEdges
350
2C
  3
Gouraud
350
2D
  3
GouraudWithEdges
350
2E
  3
Linepattern
350
38
  3
Realistic
350
33
  3
Thicken
350
37
  0
DICTIONARY
  5
1EF
102
{ACAD_REACTORS
330
C
102
}
330
C
100
AcDbDictionary
281
     1
  3
DIMASSOC
350
1F4
  3
HIDETEXT
350
1F5
  3
PSOLHEIGHT
350
1F3
  3
PSOLWIDTH
350
1F2
  0
XRECORD
  5
1F7
102
{ACAD_REACTORS
330
1F6
102
}
330
1F6
100
AcDbXrecord
280
     1
 40
10118767.0
  1
\pxsm1.;{\fVectora Com 45 Light|b1||i0||c0|p34;\C7;\H2.5;\W1.;REGO-FIX AG\P}{\fVectora Com 45 Light|b0||i0||c0|p34;\C7;\H2.5;\W1.;Obermattweg 60\P}{\fVectora Com 45 Light|b0||i0||c0|p34;\C7;\H2.5;\W1.;4456 Tenniken / Switzerland\P}{\fVectora Com 45 L
  1
ight|b0||i0||c0|p34;\C7;\H2.5;\W1.;\P}{\fVectora Com 45 Light|b0||i0||c0|p34;\C7;\H2.5;\W1.;P +41 61 976 14 66\P}{\fVectora Com 45 Light|b0||i0||c0|p34;\C7;\H2.5;\W1.;F +41 61 976 14 14\P}{\fVectora Com 45 Light|b1||i0||c0|p34;\C7;\H2.5;\W1.;www.rego
  1
-fix.com}
  0
XRECORD
  5
1F9
102
{ACAD_REACTORS
330
1F8
102
}
330
1F8
100
AcDbXrecord
280
     1
 40
47111022.0
  1
\pxsm1.;{\fSolid Edge ISO|b0||i0||c0|p34;\C7;\H2.;\W1.;This is a non-controlled copy. All information given herein is subject to change without notice\P}{\fSolid Edge ISO|b0||i0||c0|p34;\C7;\H2.;\W1.;\P}{\fSolid Edge ISO|b0||i0||c0|p34;\C7;\H2.;\W1.;
  1
The information given herein has been carefully checked and is believed to be correct. REGO-FIX,\P}{\fSolid Edge ISO|b0||i0||c0|p34;\C7;\H2.;\W1.;however, assumes no responsibility or liability for any errors, inaccuracies or omissions that may appea
  1
r\P}{\fSolid Edge ISO|b0||i0||c0|p34;\C7;\H2.;\W1.;in this drawing\P}{\fSolid Edge ISO|b0||i0||c0|p34;\C7;\H2.;\W1.;\P}{\fSolid Edge ISO|b0||i0||c0|p34;\C7;\H2.;\W1.;This document is subject to copyright laws. No part of this document may be reproduc
  1
ed or transmitted\P}{\fSolid Edge ISO|b0||i0||c0|p34;\C7;\H2.;\W1.;in any form or any means, electronic or mechanic, for any purpose, without the express written permission\P}{\fSolid Edge ISO|b0||i0||c0|p34;\C7;\H2.;\W1.;of REGO-FIX\P}{\fSolid Edge 
  1
ISO|b0||i0||c0|p34;\C7;\H1.5;\W1.;\P}
  0
XRECORD
  5
1FB
102
{ACAD_REACTORS
330
1FA
102
}
330
1FA
100
AcDbXrecord
280
     1
 40
2697483.0
  1
\pxsm1.;{\fVectora Com 45 Light|b0||i0||c0|p34;\C7;\H3.5;\W1.;Type :\P}{\fVectora Com 45 Light|b0||i0||c0|p34;\C7;\H3.5;\W1.;Part No. :\P}{\fVectora Com 45 Light|b0||i0||c0|p34;\C7;\H3.5;\W1.;Date : \P}{\fVectora Com 45 Light|b0||i0||c0|p34;\C7;\H3.5
  1
;\W1.;Scale :}
  0
LAYOUT
  5
1E
102
{ACAD_REACTORS
330
1A
102
}
330
1A
100
AcDbPlotSettings
  1

  2
none_device
  4

  6

 40
0.0
 41
0.0
 42
0.0
 43
0.0
 44
0.0
 45
0.0
 46
0.0
 47
0.0
 48
0.0
 49
0.0
140
0.0
141
0.0
142
1.0
143
1.0
 70
   688
 72
     0
 73
     0
 74
     5
  7

 75
    16
147
1.0
148
0.0
149
0.0
100
AcDbLayout
  1
Layout1
 70
     1
 71
     1
 10
0.0
 20
0.0
 11
297.0
 21
210.0
 12
0.0
 22
0.0
 32
0.0
 14
0.0
 24
0.0
 34
0.0
 15
297.0
 25
210.0
 35
0.0
146
0.0
 13
0.0
 23
0.0
 33
0.0
 16
1.0
 26
0.0
 36
0.0
 17
0.0
 27
1.0
 37
0.0
 76
     0
330
1B
  0
LAYOUT
  5
22
102
{ACAD_REACTORS
330
1A
102
}
330
1A
100
AcDbPlotSettings
  1

  2
none_device
  4

  6

 40
0.0
 41
0.0
 42
0.0
 43
0.0
 44
0.0
 45
0.0
 46
0.0
 47
0.0
 48
0.0
 49
0.0
140
0.0
141
0.0
142
1.0
143
1.0
 70
  1712
 72
     0
 73
     0
 74
     0
  7

 75
     0
147
1.0
148
0.0
149
0.0
100
AcDbLayout
  1
Model
 70
     1
 71
     0
 10
0.0
 20
0.0
 11
297.0
 21
210.0
 12
0.0
 22
0.0
 32
0.0
 14
0.0
 24
0.0
 34
0.0
 15
297.0
 25
210.0
 35
0.0
146
0.0
 13
0.0
 23
0.0
 33
0.0
 16
1.0
 26
0.0
 36
0.0
 17
0.0
 27
1.0
 37
0.0
 76
     0
330
1F
331
29
  0
MATERIAL
  5
3D
102
{ACAD_REACTORS
330
3B
102
}
102
{ACAD_XDICTIONARY
360
21E
102
}
330
3B
100
AcDbMaterial
  1
ByBlock
  0
MATERIAL
  5
3C
102
{ACAD_REACTORS
330
3B
102
}
102
{ACAD_XDICTIONARY
360
21C
102
}
330
3B
100
AcDbMaterial
  1
ByLayer
  0
MATERIAL
  5
3E
102
{ACAD_REACTORS
330
3B
102
}
102
{ACAD_XDICTIONARY
360
220
102
}
330
3B
100
AcDbMaterial
  1
Global
  0
MLINESTYLE
  5
18
102
{ACAD_REACTORS
330
17
102
}
330
17
100
AcDbMlineStyle
  2
Standard
 70
     0
  3

 62
   256
 51
90.0
 52
90.0
 71
     2
 49
0.5
 62
   256
  6
BYLAYER
 49
-0.5
 62
   256
  6
BYLAYER
  0
ACDBPLACEHOLDER
  5
F
102
{ACAD_REACTORS
330
E
102
}
330
E
  0
VISUALSTYLE
  5
2F
102
{ACAD_REACTORS
330
2A
102
}
102
{ACAD_XDICTIONARY
360
204
102
}
330
2A
100
AcDbVisualStyle
  2
2dWireframe
 70
     4
 71
     0
 72
     2
 73
     0
 90
        0
 40
-0.6
 41
-30.0
 62
     5
 63
     7
 74
     1
 91
        4
 64
     7
 65
   257
 75
     1
175
     1
 42
1.0
 92
        0
 66
   257
 43
1.0
 76
     1
 77
     6
 78
     2
 67
     7
 79
     5
170
     0
171
     0
290
     0
174
     0
 93
        1
 44
0.0
173
     0
291
     0
 45
0.0
1001
ACAD
1000
AcDbSavedByObjectVersion
1070
     0
  0
VISUALSTYLE
  5
31
102
{ACAD_REACTORS
330
2A
102
}
102
{ACAD_XDICTIONARY
360
208
102
}
330
2A
100
AcDbVisualStyle
  2
3D Hidden
 70
     6
 71
     1
 72
     2
 73
     2
 90
        0
 40
-0.6
 41
-30.0
 62
     5
 63
     7
 74
     2
 91
        2
 64
     7
 65
   257
 75
     2
175
     1
 42
40.0
 92
        0
 66
   257
 43
1.0
 76
     1
 77
     6
 78
     2
 67
     7
 79
     3
170
     0
171
     0
290
     0
174
     0
 93
        1
 44
0.0
173
     0
291
     0
 45
0.0
1001
ACAD
1000
AcDbSavedByObjectVersion
1070
     0
  0
VISUALSTYLE
  5
30
102
{ACAD_REACTORS
330
2A
102
}
102
{ACAD_XDICTIONARY
360
206
102
}
330
2A
100
AcDbVisualStyle
  2
3dWireframe
 70
     5
 71
     0
 72
     2
 73
     0
 90
        0
 40
-0.6
 41
-30.0
 62
     5
 63
     7
 74
     1
 91
        4
 64
     7
 65
   257
 75
     1
175
     1
 42
1.0
 92
        0
 66
   257
 43
1.0
 76
     1
 77
     6
 78
     2
 67
     7
 79
     5
170
     0
171
     0
290
     0
174
     0
 93
        1
 44
0.0
173
     0
291
     0
 45
0.0
1001
ACAD
1000
AcDbSavedByObjectVersion
1070
     0
  0
VISUALSTYLE
  5
32
102
{ACAD_REACTORS
330
2A
102
}
102
{ACAD_XDICTIONARY
360
20A
102
}
330
2A
100
AcDbVisualStyle
  2
Basic
 70
     7
 71
     1
 72
     0
 73
     1
 90
        0
 40
-0.6
 41
-30.0
 62
     5
 63
     7
 74
     0
 91
        4
 64
     7
 65
   257
 75
     1
175
     1
 42
1.0
 92
        8
 66
     7
 43
1.0
 76
     1
 77
     6
 78
     2
 67
     7
 79
     5
170
     0
171
     0
290
     0
174
     0
 93
        1
 44
0.0
173
     0
291
     1
 45
0.0
1001
ACAD
1000
AcDbSavedByObjectVersion
1070
     0
  0
VISUALSTYLE
  5
36
102
{ACAD_REACTORS
330
2A
102
}
102
{ACAD_XDICTIONARY
360
212
102
}
330
2A
100
AcDbVisualStyle
  2
Brighten
 70
    12
 71
     2
 72
     2
 73
     0
 90
        0
 40
-0.6
 41
-30.0
 62
     5
 63
     7
 74
     1
 91
        4
 64
     7
 65
   257
 75
     1
175
     1
 42
1.0
 92
        8
 66
     7
 43
1.0
 76
     1
 77
     6
 78
     2
 67
     7
 79
     5
170
     0
171
     0
290
     0
174
     0
 93
        1
 44
50.0
173
     0
291
     1
 45
0.0
1001
ACAD
1000
AcDbSavedByObjectVersion
1070
     0
  0
VISUALSTYLE
  5
3A
102
{ACAD_REACTORS
330
2A
102
}
102
{ACAD_XDICTIONARY
360
21A
102
}
330
2A
100
AcDbVisualStyle
  2
ColorChange
 70
    16
 71
     2
 72
     2
 73
     3
 90
        0
 40
-0.6
 41
-30.0
 62
     5
 63
     8
 74
     1
 91
        4
 64
     7
 65
   257
 75
     1
175
     1
 42
1.0
 92
        8
 66
     8
 43
1.0
 76
     1
 77
     6
 78
     2
 67
     7
 79
     5
170
     0
171
     0
290
     0
174
     0
 93
        1
 44
0.0
173
     0
291
     1
 45
0.0
1001
ACAD
1000
AcDbSavedByObjectVersion
1070
     0
  0
VISUALSTYLE
  5
34
102
{ACAD_REACTORS
330
2A
102
}
102
{ACAD_XDICTIONARY
360
20E
102
}
330
2A
100
AcDbVisualStyle
  2
Conceptual
 70
     9
 71
     3
 72
     2
 73
     0
 90
        0
 40
-0.6
 41
-30.0
 62
     5
 63
     7
 74
     2
 91
        2
 64
     7
 65
   257
 75
     1
175
     1
 42
40.0
 92
        8
 66
     7
 43
1.0
 76
     1
 77
     6
 78
     2
 67
     7
 79
     3
170
     0
171
     0
290
     0
174
     0
 93
        1
 44
0.0
173
     0
291
     0
 45
0.0
1001
ACAD
1000
AcDbSavedByObjectVersion
1070
     0
  0
VISUALSTYLE
  5
35
102
{ACAD_REACTORS
330
2A
102
}
102
{ACAD_XDICTIONARY
360
210
102
}
330
2A
100
AcDbVisualStyle
  2
Dim
 70
    11
 71
     2
 72
     2
 73
     0
 90
        0
 40
-0.6
 41
-30.0
 62
     5
 63
     7
 74
     1
 91
        4
 64
     7
 65
   257
 75
     1
175
     1
 42
1.0
 92
        8
 66
     7
 43
1.0
 76
     1
 77
     6
 78
     2
 67
     7
 79
     5
170
     0
171
     0
290
     0
174
     0
 93
        1
 44
-50.0
173
     0
291
     1
 45
0.0
1001
ACAD
1000
AcDbSavedByObjectVersion
1070
     0
  0
VISUALSTYLE
  5
39
102
{ACAD_REACTORS
330
2A
102
}
102
{ACAD_XDICTIONARY
360
218
102
}
330
2A
100
AcDbVisualStyle
  2
Facepattern
 70
    15
 71
     2
 72
     2
 73
     0
 90
        0
 40
-0.6
 41
-30.0
 62
     5
 63
     7
 74
     1
 91
        4
 64
     7
 65
   257
 75
     1
175
     1
 42
1.0
 92
        8
 66
     7
 43
1.0
 76
     1
 77
     6
 78
     2
 67
     7
 79
     5
170
     0
171
     0
290
     0
174
     0
 93
        1
 44
0.0
173
     0
291
     1
 45
0.0
1001
ACAD
1000
AcDbSavedByObjectVersion
1070
     0
  0
VISUALSTYLE
  5
2B
102
{ACAD_REACTORS
330
2A
102
}
102
{ACAD_XDICTIONARY
360
1FC
102
}
330
2A
100
AcDbVisualStyle
  2
Flat
 70
     0
 71
     2
 72
     1
 73
     1
 90
        2
 40
-0.6
 41
30.0
 62
     5
 63
     7
 74
     0
 91
        4
 64
     7
 65
   257
 75
     1
175
     1
 42
1.0
 92
        8
 66
     7
 43
1.0
 76
     1
 77
     6
 78
     2
 67
     7
 79
     5
170
     0
171
     0
290
     0
174
     0
 93
       13
 44
0.0
173
     0
291
     1
 45
0.0
1001
ACAD
1000
AcDbSavedByObjectVersion
1070
     0
  0
VISUALSTYLE
  5
2C
102
{ACAD_REACTORS
330
2A
102
}
102
{ACAD_XDICTIONARY
360
1FE
102
}
330
2A
100
AcDbVisualStyle
  2
FlatWithEdges
 70
     1
 71
     2
 72
     1
 73
     1
 90
        2
 40
-0.6
 41
30.0
 62
     5
 63
     7
 74
     1
 91
        4
 64
     7
 65
   257
 75
     1
175
     1
 42
1.0
 92
        0
 66
   257
 43
1.0
 76
     1
 77
     6
 78
     2
 67
     7
 79
     5
170
     0
171
     0
290
     0
174
     0
 93
       13
 44
0.0
173
     0
291
     1
 45
0.0
1001
ACAD
1000
AcDbSavedByObjectVersion
1070
     0
  0
VISUALSTYLE
  5
2D
102
{ACAD_REACTORS
330
2A
102
}
102
{ACAD_XDICTIONARY
360
200
102
}
330
2A
100
AcDbVisualStyle
  2
Gouraud
 70
     2
 71
     2
 72
     2
 73
     1
 90
        2
 40
-0.6
 41
30.0
 62
     5
 63
     7
 74
     0
 91
        4
 64
     7
 65
   257
 75
     1
175
     1
 42
1.0
 92
        0
 66
     7
 43
1.0
 76
     1
 77
     6
 78
     2
 67
     7
 79
     5
170
     0
171
     0
290
     0
174
     0
 93
       13
 44
0.0
173
     0
291
     1
 45
0.0
1001
ACAD
1000
AcDbSavedByObjectVersion
1070
     0
  0
VISUALSTYLE
  5
2E
102
{ACAD_REACTORS
330
2A
102
}
102
{ACAD_XDICTIONARY
360
202
102
}
330
2A
100
AcDbVisualStyle
  2
GouraudWithEdges
 70
     3
 71
     2
 72
     2
 73
     1
 90
        2
 40
-0.6
 41
30.0
 62
     5
 63
     7
 74
     1
 91
        4
 64
     7
 65
   257
 75
     1
175
     1
 42
1.0
 92
        0
 66
   257
 43
1.0
 76
     1
 77
     6
 78
     2
 67
     7
 79
     5
170
     0
171
     0
290
     0
174
     0
 93
       13
 44
0.0
173
     0
291
     1
 45
0.0
1001
ACAD
1000
AcDbSavedByObjectVersion
1070
     0
  0
VISUALSTYLE
  5
38
102
{ACAD_REACTORS
330
2A
102
}
102
{ACAD_XDICTIONARY
360
216
102
}
330
2A
100
AcDbVisualStyle
  2
Linepattern
 70
    14
 71
     2
 72
     2
 73
     0
 90
        0
 40
-0.6
 41
-30.0
 62
     5
 63
     7
 74
     1
 91
        4
 64
     7
 65
   257
 75
     7
175
     7
 42
1.0
 92
        8
 66
     7
 43
1.0
 76
     1
 77
     6
 78
     2
 67
     7
 79
     5
170
     0
171
     0
290
     0
174
     0
 93
        1
 44
0.0
173
     0
291
     1
 45
0.0
1001
ACAD
1000
AcDbSavedByObjectVersion
1070
     0
  0
VISUALSTYLE
  5
33
102
{ACAD_REACTORS
330
2A
102
}
102
{ACAD_XDICTIONARY
360
20C
102
}
330
2A
100
AcDbVisualStyle
  2
Realistic
 70
     8
 71
     2
 72
     2
 73
     0
 90
        0
 40
-0.6
 41
-30.0
 62
     5
 63
     7
 74
     1
 91
        0
 64
     7
 65
   257
 75
     1
175
     1
 42
1.0
 92
        8
 66
     8
 43
1.0
 76
     1
 77
     6
 78
     2
 67
     7
 79
     5
170
     0
171
     0
290
     0
174
     0
 93
       13
 44
0.0
173
     0
291
     0
 45
0.0
1001
ACAD
1000
AcDbSavedByObjectVersion
1070
     0
  0
VISUALSTYLE
  5
37
102
{ACAD_REACTORS
330
2A
102
}
102
{ACAD_XDICTIONARY
360
214
102
}
330
2A
100
AcDbVisualStyle
  2
Thicken
 70
    13
 71
     2
 72
     2
 73
     0
 90
        0
 40
-0.6
 41
-30.0
 62
     5
 63
     7
 74
     1
 91
        4
 64
     7
 65
   257
 75
     1
175
     1
 42
1.0
 92
       12
 66
     7
 43
1.0
 76
     1
 77
     6
 78
     2
 67
     7
 79
     5
170
     0
171
     0
290
     0
174
     0
 93
        1
 44
0.0
173
     0
291
     1
 45
0.0
1001
ACAD
1000
AcDbSavedByObjectVersion
1070
     0
  0
DICTIONARYVAR
  5
1F4
102
{ACAD_REACTORS
330
1EF
102
}
330
1EF
100
DictionaryVariables
280
     0
  1
2
  0
DICTIONARYVAR
  5
1F5
102
{ACAD_REACTORS
330
1EF
102
}
330
1EF
100
DictionaryVariables
280
     0
  1
1
  0
DICTIONARYVAR
  5
1F3
102
{ACAD_REACTORS
330
1EF
102
}
330
1EF
100
DictionaryVariables
280
     0
  1
80.000000
  0
DICTIONARYVAR
  5
1F2
102
{ACAD_REACTORS
330
1EF
102
}
330
1EF
100
DictionaryVariables
280
     0
  1
5.000000
  0
DICTIONARY
  5
21E
330
3D
100
AcDbDictionary
280
     1
281
     1
  3
ACAD_XREC_ROUNDTRIP
360
21F
  0
DICTIONARY
  5
21C
330
3C
100
AcDbDictionary
280
     1
281
     1
  3
ACAD_XREC_ROUNDTRIP
360
21D
  0
DICTIONARY
  5
220
330
3E
100
AcDbDictionary
280
     1
281
     1
  3
ACAD_XREC_ROUNDTRIP
360
221
  0
DICTIONARY
  5
204
330
2F
100
AcDbDictionary
280
     1
281
     1
  3
ACAD_XREC_ROUNDTRIP
360
205
  0
DICTIONARY
  5
208
330
31
100
AcDbDictionary
280
     1
281
     1
  3
ACAD_XREC_ROUNDTRIP
360
209
  0
DICTIONARY
  5
206
330
30
100
AcDbDictionary
280
     1
281
     1
  3
ACAD_XREC_ROUNDTRIP
360
207
  0
DICTIONARY
  5
20A
330
32
100
AcDbDictionary
280
     1
281
     1
  3
ACAD_XREC_ROUNDTRIP
360
20B
  0
DICTIONARY
  5
212
330
36
100
AcDbDictionary
280
     1
281
     1
  3
ACAD_XREC_ROUNDTRIP
360
213
  0
DICTIONARY
  5
21A
330
3A
100
AcDbDictionary
280
     1
281
     1
  3
ACAD_XREC_ROUNDTRIP
360
21B
  0
DICTIONARY
  5
20E
330
34
100
AcDbDictionary
280
     1
281
     1
  3
ACAD_XREC_ROUNDTRIP
360
20F
  0
DICTIONARY
  5
210
330
35
100
AcDbDictionary
280
     1
281
     1
  3
ACAD_XREC_ROUNDTRIP
360
211
  0
DICTIONARY
  5
218
330
39
100
AcDbDictionary
280
     1
281
     1
  3
ACAD_XREC_ROUNDTRIP
360
219
  0
DICTIONARY
  5
1FC
330
2B
100
AcDbDictionary
280
     1
281
     1
  3
ACAD_XREC_ROUNDTRIP
360
1FD
  0
DICTIONARY
  5
1FE
330
2C
100
AcDbDictionary
280
     1
281
     1
  3
ACAD_XREC_ROUNDTRIP
360
1FF
  0
DICTIONARY
  5
200
330
2D
100
AcDbDictionary
280
     1
281
     1
  3
ACAD_XREC_ROUNDTRIP
360
201
  0
DICTIONARY
  5
202
330
2E
100
AcDbDictionary
280
     1
281
     1
  3
ACAD_XREC_ROUNDTRIP
360
203
  0
DICTIONARY
  5
216
330
38
100
AcDbDictionary
280
     1
281
     1
  3
ACAD_XREC_ROUNDTRIP
360
217
  0
DICTIONARY
  5
20C
330
33
100
AcDbDictionary
280
     1
281
     1
  3
ACAD_XREC_ROUNDTRIP
360
20D
  0
DICTIONARY
  5
214
330
37
100
AcDbDictionary
280
     1
281
     1
  3
ACAD_XREC_ROUNDTRIP
360
215
  0
XRECORD
  5
21F
102
{ACAD_REACTORS
330
21E
102
}
330
21E
100
AcDbXrecord
280
     1
102
MATERIAL
148
0.0
149
0.0
149
0.0
 93
        0
 94
      127
282
     0
 72
     1
 77
     1
171
     1
175
     1
179
     1
273
     0
  0
XRECORD
  5
21D
102
{ACAD_REACTORS
330
21C
102
}
330
21C
100
AcDbXrecord
280
     1
102
MATERIAL
148
0.0
149
0.0
149
0.0
 93
        0
 94
      127
282
     0
 72
     1
 77
     1
171
     1
175
     1
179
     1
273
     0
  0
XRECORD
  5
221
102
{ACAD_REACTORS
330
220
102
}
330
220
100
AcDbXrecord
280
     1
102
MATERIAL
148
0.0
149
0.0
149
0.0
 93
        0
 94
      127
282
     0
 72
     1
 77
     1
171
     1
175
     1
179
     1
273
     0
  0
XRECORD
  5
205
102
{ACAD_REACTORS
330
204
102
}
330
204
100
AcDbXrecord
280
     1
102
RTVSPropertyOp0
 70
     1
102
RTVSPropertyOp1
 70
     1
102
RTVSPropertyOp2
 70
     1
102
RTVSPropertyOp3
 70
     1
102
RTVSPropertyOp4
 70
     1
102
RTVSPropertyOp5
 70
     1
102
RTVSPropertyOp6
 70
     1
102
RTVSPropertyOp7
 70
     1
102
RTVSPropertyOp8
 70
     1
102
RTVSPropertyOp9
 70
     1
102
RTVSPropertyOp10
 70
     1
102
RTVSPropertyOp11
 70
     1
102
RTVSPropertyOp12
 70
     1
102
RTVSPropertyOp13
 70
     1
102
RTVSPropertyOp14
 70
     1
102
RTVSPropertyOp15
 70
     1
102
RTVSPropertyOp16
 70
     1
102
RTVSPropertyOp17
 70
     1
102
RTVSPropertyOp18
 70
     1
102
RTVSPropertyOp19
 70
     1
102
RTVSPropertyOp20
 70
     1
102
RTVSPropertyOp21
 70
     1
102
RTVSPropertyOp22
 70
     1
102
RTVSPropertyOp23
 70
     1
102
RTVSPropertyOp24
 70
     1
102
RTVSPropertyOp25
 70
     1
102
RTVSPropertyOp26
 70
     1
102
RTVSPropertyOp27
 70
     1
102
RTVSPropertyOp28
 70
     1
102
RTVSPropertyOp29
 70
     1
102
RTVSPropertyOp30
 70
     1
102
RTVSPropertyOp31
 70
     1
102
RTVSPropertyOp32
 70
     1
  0
XRECORD
  5
209
102
{ACAD_REACTORS
330
208
102
}
330
208
100
AcDbXrecord
280
     1
102
RTVSPropertyOp0
 70
     1
102
RTVSPropertyOp1
 70
     1
102
RTVSPropertyOp2
 70
     1
102
RTVSPropertyOp3
 70
     1
102
RTVSPropertyOp4
 70
     1
102
RTVSPropertyOp5
 70
     1
102
RTVSPropertyOp6
 70
     1
102
RTVSPropertyOp7
 70
     1
102
RTVSPropertyOp8
 70
     1
102
RTVSPropertyOp9
 70
     1
102
RTVSPropertyOp10
 70
     1
102
RTVSPropertyOp11
 70
     1
102
RTVSPropertyOp12
 70
     1
102
RTVSPropertyOp13
 70
     1
102
RTVSPropertyOp14
 70
     1
102
RTVSPropertyOp15
 70
     1
102
RTVSPropertyOp16
 70
     1
102
RTVSPropertyOp17
 70
     1
102
RTVSPropertyOp18
 70
     1
102
RTVSPropertyOp19
 70
     1
102
RTVSPropertyOp20
 70
     1
102
RTVSPropertyOp21
 70
     1
102
RTVSPropertyOp22
 70
     1
102
RTVSPropertyOp23
 70
     1
102
RTVSPropertyOp24
 70
     1
102
RTVSPropertyOp25
 70
     1
102
RTVSPropertyOp26
 70
     1
102
RTVSPropertyOp27
 70
     1
102
RTVSPropertyOp28
 70
     1
102
RTVSPropertyOp29
 70
     1
102
RTVSPropertyOp30
 70
     1
102
RTVSPropertyOp31
 70
     1
102
RTVSPropertyOp32
 70
     1
  0
XRECORD
  5
207
102
{ACAD_REACTORS
330
206
102
}
330
206
100
AcDbXrecord
280
     1
102
RTVSPropertyOp0
 70
     1
102
RTVSPropertyOp1
 70
     1
102
RTVSPropertyOp2
 70
     1
102
RTVSPropertyOp3
 70
     1
102
RTVSPropertyOp4
 70
     1
102
RTVSPropertyOp5
 70
     1
102
RTVSPropertyOp6
 70
     1
102
RTVSPropertyOp7
 70
     1
102
RTVSPropertyOp8
 70
     1
102
RTVSPropertyOp9
 70
     1
102
RTVSPropertyOp10
 70
     1
102
RTVSPropertyOp11
 70
     1
102
RTVSPropertyOp12
 70
     1
102
RTVSPropertyOp13
 70
     1
102
RTVSPropertyOp14
 70
     1
102
RTVSPropertyOp15
 70
     1
102
RTVSPropertyOp16
 70
     1
102
RTVSPropertyOp17
 70
     1
102
RTVSPropertyOp18
 70
     1
102
RTVSPropertyOp19
 70
     1
102
RTVSPropertyOp20
 70
     1
102
RTVSPropertyOp21
 70
     1
102
RTVSPropertyOp22
 70
     1
102
RTVSPropertyOp23
 70
     1
102
RTVSPropertyOp24
 70
     1
102
RTVSPropertyOp25
 70
     1
102
RTVSPropertyOp26
 70
     1
102
RTVSPropertyOp27
 70
     1
102
RTVSPropertyOp28
 70
     1
102
RTVSPropertyOp29
 70
     1
102
RTVSPropertyOp30
 70
     1
102
RTVSPropertyOp31
 70
     1
102
RTVSPropertyOp32
 70
     1
  0
XRECORD
  5
20B
102
{ACAD_REACTORS
330
20A
102
}
330
20A
100
AcDbXrecord
280
     1
102
RTVSPropertyOp0
 70
     1
102
RTVSPropertyOp1
 70
     1
102
RTVSPropertyOp2
 70
     1
102
RTVSPropertyOp3
 70
     1
102
RTVSPropertyOp4
 70
     1
102
RTVSPropertyOp5
 70
     1
102
RTVSPropertyOp6
 70
     1
102
RTVSPropertyOp7
 70
     1
102
RTVSPropertyOp8
 70
     1
102
RTVSPropertyOp9
 70
     1
102
RTVSPropertyOp10
 70
     1
102
RTVSPropertyOp11
 70
     1
102
RTVSPropertyOp12
 70
     1
102
RTVSPropertyOp13
 70
     1
102
RTVSPropertyOp14
 70
     1
102
RTVSPropertyOp15
 70
     1
102
RTVSPropertyOp16
 70
     1
102
RTVSPropertyOp17
 70
     1
102
RTVSPropertyOp18
 70
     1
102
RTVSPropertyOp19
 70
     1
102
RTVSPropertyOp20
 70
     1
102
RTVSPropertyOp21
 70
     1
102
RTVSPropertyOp22
 70
     1
102
RTVSPropertyOp23
 70
     1
102
RTVSPropertyOp24
 70
     1
102
RTVSPropertyOp25
 70
     1
102
RTVSPropertyOp26
 70
     1
102
RTVSPropertyOp27
 70
     1
102
RTVSPropertyOp28
 70
     1
102
RTVSPropertyOp29
 70
     1
102
RTVSPropertyOp30
 70
     1
102
RTVSPropertyOp31
 70
     1
102
RTVSPropertyOp32
 70
     1
  0
XRECORD
  5
213
102
{ACAD_REACTORS
330
212
102
}
330
212
100
AcDbXrecord
280
     1
102
RTVSPropertyOp0
 70
     1
102
RTVSPropertyOp1
 70
     1
102
RTVSPropertyOp2
 70
     1
102
RTVSPropertyOp3
 70
     1
102
RTVSPropertyOp4
 70
     1
102
RTVSPropertyOp5
 70
     1
102
RTVSPropertyOp6
 70
     1
102
RTVSPropertyOp7
 70
     1
102
RTVSPropertyOp8
 70
     1
102
RTVSPropertyOp9
 70
     1
102
RTVSPropertyOp10
 70
     1
102
RTVSPropertyOp11
 70
     1
102
RTVSPropertyOp12
 70
     1
102
RTVSPropertyOp13
 70
     1
102
RTVSPropertyOp14
 70
     1
102
RTVSPropertyOp15
 70
     1
102
RTVSPropertyOp16
 70
     1
102
RTVSPropertyOp17
 70
     1
102
RTVSPropertyOp18
 70
     1
102
RTVSPropertyOp19
 70
     1
102
RTVSPropertyOp20
 70
     1
102
RTVSPropertyOp21
 70
     1
102
RTVSPropertyOp22
 70
     1
102
RTVSPropertyOp23
 70
     1
102
RTVSPropertyOp24
 70
     1
102
RTVSPropertyOp25
 70
     1
102
RTVSPropertyOp26
 70
     1
102
RTVSPropertyOp27
 70
     1
102
RTVSPropertyOp28
 70
     1
102
RTVSPropertyOp29
 70
     1
102
RTVSPropertyOp30
 70
     1
102
RTVSPropertyOp31
 70
     1
102
RTVSPropertyOp32
 70
     1
  0
XRECORD
  5
21B
102
{ACAD_REACTORS
330
21A
102
}
330
21A
100
AcDbXrecord
280
     1
102
RTVSPropertyOp0
 70
     1
102
RTVSPropertyOp1
 70
     1
102
RTVSPropertyOp2
 70
     1
102
RTVSPropertyOp3
 70
     1
102
RTVSPropertyOp4
 70
     1
102
RTVSPropertyOp5
 70
     1
102
RTVSPropertyOp6
 70
     1
102
RTVSPropertyOp7
 70
     1
102
RTVSPropertyOp8
 70
     1
102
RTVSPropertyOp9
 70
     1
102
RTVSPropertyOp10
 70
     1
102
RTVSPropertyOp11
 70
     1
102
RTVSPropertyOp12
 70
     1
102
RTVSPropertyOp13
 70
     1
102
RTVSPropertyOp14
 70
     1
102
RTVSPropertyOp15
 70
     1
102
RTVSPropertyOp16
 70
     1
102
RTVSPropertyOp17
 70
     1
102
RTVSPropertyOp18
 70
     1
102
RTVSPropertyOp19
 70
     1
102
RTVSPropertyOp20
 70
     1
102
RTVSPropertyOp21
 70
     1
102
RTVSPropertyOp22
 70
     1
102
RTVSPropertyOp23
 70
     1
102
RTVSPropertyOp24
 70
     1
102
RTVSPropertyOp25
 70
     1
102
RTVSPropertyOp26
 70
     1
102
RTVSPropertyOp27
 70
     1
102
RTVSPropertyOp28
 70
     1
102
RTVSPropertyOp29
 70
     1
102
RTVSPropertyOp30
 70
     1
102
RTVSPropertyOp31
 70
     1
102
RTVSPropertyOp32
 70
     1
  0
XRECORD
  5
20F
102
{ACAD_REACTORS
330
20E
102
}
330
20E
100
AcDbXrecord
280
     1
102
RTVSPropertyOp0
 70
     1
102
RTVSPropertyOp1
 70
     1
102
RTVSPropertyOp2
 70
     1
102
RTVSPropertyOp3
 70
     1
102
RTVSPropertyOp4
 70
     1
102
RTVSPropertyOp5
 70
     1
102
RTVSPropertyOp6
 70
     1
102
RTVSPropertyOp7
 70
     1
102
RTVSPropertyOp8
 70
     1
102
RTVSPropertyOp9
 70
     1
102
RTVSPropertyOp10
 70
     1
102
RTVSPropertyOp11
 70
     1
102
RTVSPropertyOp12
 70
     1
102
RTVSPropertyOp13
 70
     1
102
RTVSPropertyOp14
 70
     1
102
RTVSPropertyOp15
 70
     1
102
RTVSPropertyOp16
 70
     1
102
RTVSPropertyOp17
 70
     1
102
RTVSPropertyOp18
 70
     1
102
RTVSPropertyOp19
 70
     1
102
RTVSPropertyOp20
 70
     1
102
RTVSPropertyOp21
 70
     1
102
RTVSPropertyOp22
 70
     1
102
RTVSPropertyOp23
 70
     1
102
RTVSPropertyOp24
 70
     1
102
RTVSPropertyOp25
 70
     1
102
RTVSPropertyOp26
 70
     1
102
RTVSPropertyOp27
 70
     1
102
RTVSPropertyOp28
 70
     1
102
RTVSPropertyOp29
 70
     1
102
RTVSPropertyOp30
 70
     1
102
RTVSPropertyOp31
 70
     1
102
RTVSPropertyOp32
 70
     1
  0
XRECORD
  5
211
102
{ACAD_REACTORS
330
210
102
}
330
210
100
AcDbXrecord
280
     1
102
RTVSPropertyOp0
 70
     1
102
RTVSPropertyOp1
 70
     1
102
RTVSPropertyOp2
 70
     1
102
RTVSPropertyOp3
 70
     1
102
RTVSPropertyOp4
 70
     1
102
RTVSPropertyOp5
 70
     1
102
RTVSPropertyOp6
 70
     1
102
RTVSPropertyOp7
 70
     1
102
RTVSPropertyOp8
 70
     1
102
RTVSPropertyOp9
 70
     1
102
RTVSPropertyOp10
 70
     1
102
RTVSPropertyOp11
 70
     1
102
RTVSPropertyOp12
 70
     1
102
RTVSPropertyOp13
 70
     1
102
RTVSPropertyOp14
 70
     1
102
RTVSPropertyOp15
 70
     1
102
RTVSPropertyOp16
 70
     1
102
RTVSPropertyOp17
 70
     1
102
RTVSPropertyOp18
 70
     1
102
RTVSPropertyOp19
 70
     1
102
RTVSPropertyOp20
 70
     1
102
RTVSPropertyOp21
 70
     1
102
RTVSPropertyOp22
 70
     1
102
RTVSPropertyOp23
 70
     1
102
RTVSPropertyOp24
 70
     1
102
RTVSPropertyOp25
 70
     1
102
RTVSPropertyOp26
 70
     1
102
RTVSPropertyOp27
 70
     1
102
RTVSPropertyOp28
 70
     1
102
RTVSPropertyOp29
 70
     1
102
RTVSPropertyOp30
 70
     1
102
RTVSPropertyOp31
 70
     1
102
RTVSPropertyOp32
 70
     1
  0
XRECORD
  5
219
102
{ACAD_REACTORS
330
218
102
}
330
218
100
AcDbXrecord
280
     1
102
RTVSPropertyOp0
 70
     1
102
RTVSPropertyOp1
 70
     1
102
RTVSPropertyOp2
 70
     1
102
RTVSPropertyOp3
 70
     1
102
RTVSPropertyOp4
 70
     1
102
RTVSPropertyOp5
 70
     1
102
RTVSPropertyOp6
 70
     1
102
RTVSPropertyOp7
 70
     1
102
RTVSPropertyOp8
 70
     1
102
RTVSPropertyOp9
 70
     1
102
RTVSPropertyOp10
 70
     1
102
RTVSPropertyOp11
 70
     1
102
RTVSPropertyOp12
 70
     1
102
RTVSPropertyOp13
 70
     1
102
RTVSPropertyOp14
 70
     1
102
RTVSPropertyOp15
 70
     1
102
RTVSPropertyOp16
 70
     1
102
RTVSPropertyOp17
 70
     1
102
RTVSPropertyOp18
 70
     1
102
RTVSPropertyOp19
 70
     1
102
RTVSPropertyOp20
 70
     1
102
RTVSPropertyOp21
 70
     1
102
RTVSPropertyOp22
 70
     1
102
RTVSPropertyOp23
 70
     1
102
RTVSPropertyOp24
 70
     1
102
RTVSPropertyOp25
 70
     1
102
RTVSPropertyOp26
 70
     1
102
RTVSPropertyOp27
 70
     1
102
RTVSPropertyOp28
 70
     1
102
RTVSPropertyOp29
 70
     1
102
RTVSPropertyOp30
 70
     1
102
RTVSPropertyOp31
 70
     1
102
RTVSPropertyOp32
 70
     1
  0
XRECORD
  5
1FD
102
{ACAD_REACTORS
330
1FC
102
}
330
1FC
100
AcDbXrecord
280
     1
102
RTVSPropertyOp0
 70
     1
102
RTVSPropertyOp1
 70
     1
102
RTVSPropertyOp2
 70
     1
102
RTVSPropertyOp3
 70
     1
102
RTVSPropertyOp4
 70
     1
102
RTVSPropertyOp5
 70
     1
102
RTVSPropertyOp6
 70
     1
102
RTVSPropertyOp7
 70
     1
102
RTVSPropertyOp8
 70
     1
102
RTVSPropertyOp9
 70
     1
102
RTVSPropertyOp10
 70
     1
102
RTVSPropertyOp11
 70
     1
102
RTVSPropertyOp12
 70
     1
102
RTVSPropertyOp13
 70
     1
102
RTVSPropertyOp14
 70
     1
102
RTVSPropertyOp15
 70
     1
102
RTVSPropertyOp16
 70
     1
102
RTVSPropertyOp17
 70
     1
102
RTVSPropertyOp18
 70
     1
102
RTVSPropertyOp19
 70
     1
102
RTVSPropertyOp20
 70
     1
102
RTVSPropertyOp21
 70
     1
102
RTVSPropertyOp22
 70
     1
102
RTVSPropertyOp23
 70
     1
102
RTVSPropertyOp24
 70
     1
102
RTVSPropertyOp25
 70
     1
102
RTVSPropertyOp26
 70
     1
102
RTVSPropertyOp27
 70
     1
102
RTVSPropertyOp28
 70
     1
102
RTVSPropertyOp29
 70
     1
102
RTVSPropertyOp30
 70
     1
102
RTVSPropertyOp31
 70
     1
102
RTVSPropertyOp32
 70
     1
  0
XRECORD
  5
1FF
102
{ACAD_REACTORS
330
1FE
102
}
330
1FE
100
AcDbXrecord
280
     1
102
RTVSPropertyOp0
 70
     1
102
RTVSPropertyOp1
 70
     1
102
RTVSPropertyOp2
 70
     1
102
RTVSPropertyOp3
 70
     1
102
RTVSPropertyOp4
 70
     1
102
RTVSPropertyOp5
 70
     1
102
RTVSPropertyOp6
 70
     1
102
RTVSPropertyOp7
 70
     1
102
RTVSPropertyOp8
 70
     1
102
RTVSPropertyOp9
 70
     1
102
RTVSPropertyOp10
 70
     1
102
RTVSPropertyOp11
 70
     1
102
RTVSPropertyOp12
 70
     1
102
RTVSPropertyOp13
 70
     1
102
RTVSPropertyOp14
 70
     1
102
RTVSPropertyOp15
 70
     1
102
RTVSPropertyOp16
 70
     1
102
RTVSPropertyOp17
 70
     1
102
RTVSPropertyOp18
 70
     1
102
RTVSPropertyOp19
 70
     1
102
RTVSPropertyOp20
 70
     1
102
RTVSPropertyOp21
 70
     1
102
RTVSPropertyOp22
 70
     1
102
RTVSPropertyOp23
 70
     1
102
RTVSPropertyOp24
 70
     1
102
RTVSPropertyOp25
 70
     1
102
RTVSPropertyOp26
 70
     1
102
RTVSPropertyOp27
 70
     1
102
RTVSPropertyOp28
 70
     1
102
RTVSPropertyOp29
 70
     1
102
RTVSPropertyOp30
 70
     1
102
RTVSPropertyOp31
 70
     1
102
RTVSPropertyOp32
 70
     1
  0
XRECORD
  5
201
102
{ACAD_REACTORS
330
200
102
}
330
200
100
AcDbXrecord
280
     1
102
RTVSPropertyOp0
 70
     1
102
RTVSPropertyOp1
 70
     1
102
RTVSPropertyOp2
 70
     1
102
RTVSPropertyOp3
 70
     1
102
RTVSPropertyOp4
 70
     1
102
RTVSPropertyOp5
 70
     1
102
RTVSPropertyOp6
 70
     1
102
RTVSPropertyOp7
 70
     1
102
RTVSPropertyOp8
 70
     1
102
RTVSPropertyOp9
 70
     1
102
RTVSPropertyOp10
 70
     1
102
RTVSPropertyOp11
 70
     1
102
RTVSPropertyOp12
 70
     1
102
RTVSPropertyOp13
 70
     1
102
RTVSPropertyOp14
 70
     1
102
RTVSPropertyOp15
 70
     1
102
RTVSPropertyOp16
 70
     1
102
RTVSPropertyOp17
 70
     1
102
RTVSPropertyOp18
 70
     1
102
RTVSPropertyOp19
 70
     1
102
RTVSPropertyOp20
 70
     1
102
RTVSPropertyOp21
 70
     1
102
RTVSPropertyOp22
 70
     1
102
RTVSPropertyOp23
 70
     1
102
RTVSPropertyOp24
 70
     1
102
RTVSPropertyOp25
 70
     1
102
RTVSPropertyOp26
 70
     1
102
RTVSPropertyOp27
 70
     1
102
RTVSPropertyOp28
 70
     1
102
RTVSPropertyOp29
 70
     1
102
RTVSPropertyOp30
 70
     1
102
RTVSPropertyOp31
 70
     1
102
RTVSPropertyOp32
 70
     1
  0
XRECORD
  5
203
102
{ACAD_REACTORS
330
202
102
}
330
202
100
AcDbXrecord
280
     1
102
RTVSPropertyOp0
 70
     1
102
RTVSPropertyOp1
 70
     1
102
RTVSPropertyOp2
 70
     1
102
RTVSPropertyOp3
 70
     1
102
RTVSPropertyOp4
 70
     1
102
RTVSPropertyOp5
 70
     1
102
RTVSPropertyOp6
 70
     1
102
RTVSPropertyOp7
 70
     1
102
RTVSPropertyOp8
 70
     1
102
RTVSPropertyOp9
 70
     1
102
RTVSPropertyOp10
 70
     1
102
RTVSPropertyOp11
 70
     1
102
RTVSPropertyOp12
 70
     1
102
RTVSPropertyOp13
 70
     1
102
RTVSPropertyOp14
 70
     1
102
RTVSPropertyOp15
 70
     1
102
RTVSPropertyOp16
 70
     1
102
RTVSPropertyOp17
 70
     1
102
RTVSPropertyOp18
 70
     1
102
RTVSPropertyOp19
 70
     1
102
RTVSPropertyOp20
 70
     1
102
RTVSPropertyOp21
 70
     1
102
RTVSPropertyOp22
 70
     1
102
RTVSPropertyOp23
 70
     1
102
RTVSPropertyOp24
 70
     1
102
RTVSPropertyOp25
 70
     1
102
RTVSPropertyOp26
 70
     1
102
RTVSPropertyOp27
 70
     1
102
RTVSPropertyOp28
 70
     1
102
RTVSPropertyOp29
 70
     1
102
RTVSPropertyOp30
 70
     1
102
RTVSPropertyOp31
 70
     1
102
RTVSPropertyOp32
 70
     1
  0
XRECORD
  5
217
102
{ACAD_REACTORS
330
216
102
}
330
216
100
AcDbXrecord
280
     1
102
RTVSPropertyOp0
 70
     1
102
RTVSPropertyOp1
 70
     1
102
RTVSPropertyOp2
 70
     1
102
RTVSPropertyOp3
 70
     1
102
RTVSPropertyOp4
 70
     1
102
RTVSPropertyOp5
 70
     1
102
RTVSPropertyOp6
 70
     1
102
RTVSPropertyOp7
 70
     1
102
RTVSPropertyOp8
 70
     1
102
RTVSPropertyOp9
 70
     1
102
RTVSPropertyOp10
 70
     1
102
RTVSPropertyOp11
 70
     1
102
RTVSPropertyOp12
 70
     1
102
RTVSPropertyOp13
 70
     1
102
RTVSPropertyOp14
 70
     1
102
RTVSPropertyOp15
 70
     1
102
RTVSPropertyOp16
 70
     1
102
RTVSPropertyOp17
 70
     1
102
RTVSPropertyOp18
 70
     1
102
RTVSPropertyOp19
 70
     1
102
RTVSPropertyOp20
 70
     1
102
RTVSPropertyOp21
 70
     1
102
RTVSPropertyOp22
 70
     1
102
RTVSPropertyOp23
 70
     1
102
RTVSPropertyOp24
 70
     1
102
RTVSPropertyOp25
 70
     1
102
RTVSPropertyOp26
 70
     1
102
RTVSPropertyOp27
 70
     1
102
RTVSPropertyOp28
 70
     1
102
RTVSPropertyOp29
 70
     1
102
RTVSPropertyOp30
 70
     1
102
RTVSPropertyOp31
 70
     1
102
RTVSPropertyOp32
 70
     1
  0
XRECORD
  5
20D
102
{ACAD_REACTORS
330
20C
102
}
330
20C
100
AcDbXrecord
280
     1
102
RTVSPropertyOp0
 70
     1
102
RTVSPropertyOp1
 70
     1
102
RTVSPropertyOp2
 70
     1
102
RTVSPropertyOp3
 70
     1
102
RTVSPropertyOp4
 70
     1
102
RTVSPropertyOp5
 70
     1
102
RTVSPropertyOp6
 70
     1
102
RTVSPropertyOp7
 70
     1
102
RTVSPropertyOp8
 70
     1
102
RTVSPropertyOp9
 70
     1
102
RTVSPropertyOp10
 70
     1
102
RTVSPropertyOp11
 70
     1
102
RTVSPropertyOp12
 70
     1
102
RTVSPropertyOp13
 70
     1
102
RTVSPropertyOp14
 70
     1
102
RTVSPropertyOp15
 70
     1
102
RTVSPropertyOp16
 70
     1
102
RTVSPropertyOp17
 70
     1
102
RTVSPropertyOp18
 70
     1
102
RTVSPropertyOp19
 70
     1
102
RTVSPropertyOp20
 70
     1
102
RTVSPropertyOp21
 70
     1
102
RTVSPropertyOp22
 70
     1
102
RTVSPropertyOp23
 70
     1
102
RTVSPropertyOp24
 70
     1
102
RTVSPropertyOp25
 70
     1
102
RTVSPropertyOp26
 70
     1
102
RTVSPropertyOp27
 70
     1
102
RTVSPropertyOp28
 70
     1
102
RTVSPropertyOp29
 70
     1
102
RTVSPropertyOp30
 70
     1
102
RTVSPropertyOp31
 70
     1
102
RTVSPropertyOp32
 70
     1
  0
XRECORD
  5
215
102
{ACAD_REACTORS
330
214
102
}
330
214
100
AcDbXrecord
280
     1
102
RTVSPropertyOp0
 70
     1
102
RTVSPropertyOp1
 70
     1
102
RTVSPropertyOp2
 70
     1
102
RTVSPropertyOp3
 70
     1
102
RTVSPropertyOp4
 70
     1
102
RTVSPropertyOp5
 70
     1
102
RTVSPropertyOp6
 70
     1
102
RTVSPropertyOp7
 70
     1
102
RTVSPropertyOp8
 70
     1
102
RTVSPropertyOp9
 70
     1
102
RTVSPropertyOp10
 70
     1
102
RTVSPropertyOp11
 70
     1
102
RTVSPropertyOp12
 70
     1
102
RTVSPropertyOp13
 70
     1
102
RTVSPropertyOp14
 70
     1
102
RTVSPropertyOp15
 70
     1
102
RTVSPropertyOp16
 70
     1
102
RTVSPropertyOp17
 70
     1
102
RTVSPropertyOp18
 70
     1
102
RTVSPropertyOp19
 70
     1
102
RTVSPropertyOp20
 70
     1
102
RTVSPropertyOp21
 70
     1
102
RTVSPropertyOp22
 70
     1
102
RTVSPropertyOp23
 70
     1
102
RTVSPropertyOp24
 70
     1
102
RTVSPropertyOp25
 70
     1
102
RTVSPropertyOp26
 70
     1
102
RTVSPropertyOp27
 70
     1
102
RTVSPropertyOp28
 70
     1
102
RTVSPropertyOp29
 70
     1
102
RTVSPropertyOp30
 70
     1
102
RTVSPropertyOp31
 70
     1
102
RTVSPropertyOp32
 70
     1
  0
ENDSEC
  0
EOF
