  0
SECTION
  2
HEADER
  9
$ACADVER
  1
AC1015
  9
$ACADMAINTVER
 70
     6
  9
$DWGCODEPAGE
  3
ANSI_1252
  9
$INSBASE
 10
0.0
 20
0.0
 30
0.0
  9
$EXTMIN
 10
0.0
 20
0.0
 30
0.0
  9
$EXTMAX
 10
297.0
 20
210.0
 30
0.0
  9
$LIMMIN
 10
0.0
 20
0.0
  9
$LIMMAX
 10
297.0
 20
210.0
  9
$ORTHOMODE
 70
     0
  9
$REGENMODE
 70
     1
  9
$FILLMODE
 70
     1
  9
$QTEXTMODE
 70
     0
  9
$MIRRTEXT
 70
     1
  9
$LTSCALE
 40
1.0
  9
$ATTMODE
 70
     1
  9
$TEXTSIZE
 40
2.5
  9
$TRACEWID
 40
1.0
  9
$TEXTSTYLE
  7
Standard
  9
$CLAYER
  8
0
  9
$CELTYPE
  6
ByLayer
  9
$CECOLOR
 62
   256
  9
$CELTSCALE
 40
1.0
  9
$DISPSILH
 70
     0
  9
$DIMSCALE
 40
1.0
  9
$DIMASZ
 40
2.5
  9
$DIMEXO
 40
0.625
  9
$DIMDLI
 40
3.75
  9
$DIMRND
 40
0.0
  9
$DIMDLE
 40
0.0
  9
$DIMEXE
 40
1.25
  9
$DIMTP
 40
0.0
  9
$DIMTM
 40
0.0
  9
$DIMTXT
 40
2.5
  9
$DIMCEN
 40
2.5
  9
$DIMTSZ
 40
0.0
  9
$DIMTOL
 70
     0
  9
$DIMLIM
 70
     0
  9
$DIMTIH
 70
     0
  9
$DIMTOH
 70
     0
  9
$DIMSE1
 70
     0
  9
$DIMSE2
 70
     0
  9
$DIMTAD
 70
     1
  9
$DIMZIN
 70
     8
  9
$DIMBLK
  1

  9
$DIMASO
 70
     1
  9
$DIMSHO
 70
     1
  9
$DIMPOST
  1

  9
$DIMAPOST
  1

  9
$DIMALT
 70
     0
  9
$DIMALTD
 70
     3
  9
$DIMALTF
 40
0.0393700787
  9
$DIMLFAC
 40
1.0
  9
$DIMTOFL
 70
     1
  9
$DIMTVP
 40
0.0
  9
$DIMTIX
 70
     0
  9
$DIMSOXD
 70
     0
  9
$DIMSAH
 70
     0
  9
$DIMBLK1
  1

  9
$DIMBLK2
  1

  9
$DIMSTYLE
  2
ISO-25
  9
$DIMCLRD
 70
     0
  9
$DIMCLRE
 70
     0
  9
$DIMCLRT
 70
     0
  9
$DIMTFAC
 40
1.0
  9
$DIMGAP
 40
0.625
  9
$DIMJUST
 70
     0
  9
$DIMSD1
 70
     0
  9
$DIMSD2
 70
     0
  9
$DIMTOLJ
 70
     0
  9
$DIMTZIN
 70
     8
  9
$DIMALTZ
 70
     0
  9
$DIMALTTZ
 70
     0
  9
$DIMUPT
 70
     0
  9
$DIMDEC
 70
     2
  9
$DIMTDEC
 70
     2
  9
$DIMALTU
 70
     2
  9
$DIMALTTD
 70
     3
  9
$DIMTXSTY
  7
Standard
  9
$DIMAUNIT
 70
     0
  9
$DIMADEC
 70
     0
  9
$DIMALTRND
 40
0.0
  9
$DIMAZIN
 70
     0
  9
$DIMDSEP
 70
    44
  9
$DIMATFIT
 70
     3
  9
$DIMFRAC
 70
     0
  9
$DIMLDRBLK
  1

  9
$DIMLUNIT
 70
     2
  9
$DIMLWD
 70
    -2
  9
$DIMLWE
 70
    -2
  9
$DIMTMOVE
 70
     0
  9
$LUNITS
 70
     2
  9
$LUPREC
 70
     4
  9
$SKETCHINC
 40
1.0
  9
$FILLETRAD
 40
10.0
  9
$AUNITS
 70
     0
  9
$AUPREC
 70
     0
  9
$MENU
  1
.
  9
$ELEVATION
 40
0.0
  9
$PELEVATION
 40
0.0
  9
$THICKNESS
 40
0.0
  9
$LIMCHECK
 70
     0
  9
$CHAMFERA
 40
10.0
  9
$CHAMFERB
 40
10.0
  9
$CHAMFERC
 40
20.0
  9
$CHAMFERD
 40
0.0
  9
$SKPOLY
 70
     0
  9
$TDCREATE
 40
2457310.375603611
  9
$TDUCREATE
 40
2457310.292270278
  9
$TDUPDATE
 40
2457310.375605046
  9
$TDUUPDATE
 40
2457310.292271713
  9
$TDINDWG
 40
0.0000000116
  9
$TDUSRTIMER
 40
0.0000000116
  9
$USRTIMER
 70
     1
  9
$ANGBASE
 50
0.0
  9
$ANGDIR
 70
     0
  9
$PDMODE
 70
     0
  9
$PDSIZE
 40
0.0
  9
$PLINEWID
 40
0.0
  9
$SPLFRAME
 70
     0
  9
$SPLINETYPE
 70
     6
  9
$SPLINESEGS
 70
     8
  9
$HANDSEED
  5
1CB
  9
$SURFTAB1
 70
     6
  9
$SURFTAB2
 70
     6
  9
$SURFTYPE
 70
     6
  9
$SURFU
 70
     6
  9
$SURFV
 70
     6
  9
$UCSBASE
  2

  9
$UCSNAME
  2

  9
$UCSORG
 10
0.0
 20
0.0
 30
0.0
  9
$UCSXDIR
 10
1.0
 20
0.0
 30
0.0
  9
$UCSYDIR
 10
0.0
 20
1.0
 30
0.0
  9
$UCSORTHOREF
  2

  9
$UCSORTHOVIEW
 70
     0
  9
$UCSORGTOP
 10
0.0
 20
0.0
 30
0.0
  9
$UCSORGBOTTOM
 10
0.0
 20
0.0
 30
0.0
  9
$UCSORGLEFT
 10
0.0
 20
0.0
 30
0.0
  9
$UCSORGRIGHT
 10
0.0
 20
0.0
 30
0.0
  9
$UCSORGFRONT
 10
0.0
 20
0.0
 30
0.0
  9
$UCSORGBACK
 10
0.0
 20
0.0
 30
0.0
  9
$PUCSBASE
  2

  9
$PUCSNAME
  2

  9
$PUCSORG
 10
0.0
 20
0.0
 30
0.0
  9
$PUCSXDIR
 10
1.0
 20
0.0
 30
0.0
  9
$PUCSYDIR
 10
0.0
 20
1.0
 30
0.0
  9
$PUCSORTHOREF
  2

  9
$PUCSORTHOVIEW
 70
     0
  9
$PUCSORGTOP
 10
0.0
 20
0.0
 30
0.0
  9
$PUCSORGBOTTOM
 10
0.0
 20
0.0
 30
0.0
  9
$PUCSORGLEFT
 10
0.0
 20
0.0
 30
0.0
  9
$PUCSORGRIGHT
 10
0.0
 20
0.0
 30
0.0
  9
$PUCSORGFRONT
 10
0.0
 20
0.0
 30
0.0
  9
$PUCSORGBACK
 10
0.0
 20
0.0
 30
0.0
  9
$USERI1
 70
     0
  9
$USERI2
 70
     0
  9
$USERI3
 70
     0
  9
$USERI4
 70
     0
  9
$USERI5
 70
     0
  9
$USERR1
 40
0.0
  9
$USERR2
 40
0.0
  9
$USERR3
 40
0.0
  9
$USERR4
 40
0.0
  9
$USERR5
 40
0.0
  9
$WORLDVIEW
 70
     1
  9
$SHADEDGE
 70
     3
  9
$SHADEDIF
 70
    70
  9
$TILEMODE
 70
     1
  9
$MAXACTVP
 70
    64
  9
$PINSBASE
 10
0.0
 20
0.0
 30
0.0
  9
$PLIMCHECK
 70
     0
  9
$PEXTMIN
 10
0.0
 20
0.0
 30
0.0
  9
$PEXTMAX
 10
297.0
 20
210.0
 30
0.0
  9
$PLIMMIN
 10
0.0
 20
0.0
  9
$PLIMMAX
 10
297.0
 20
210.0
  9
$UNITMODE
 70
     0
  9
$VISRETAIN
 70
     1
  9
$PLINEGEN
 70
     0
  9
$PSLTSCALE
 70
     1
  9
$TREEDEPTH
 70
  3020
  9
$CMLSTYLE
  2
Standard
  9
$CMLJUST
 70
     0
  9
$CMLSCALE
 40
20.0
  9
$PROXYGRAPHICS
 70
     1
  9
$MEASUREMENT
 70
     1
  9
$CELWEIGHT
370
    -1
  9
$ENDCAPS
280
     0
  9
$JOINSTYLE
280
     0
  9
$LWDISPLAY
290
     0
  9
$INSUNITS
 70
     4
  9
$HYPERLINKBASE
  1

  9
$STYLESHEET
  1

  9
$XEDIT
290
     1
  9
$CEPSNTYPE
380
     0
  9
$PSTYLEMODE
290
     1
  9
$FINGERPRINTGUID
  2
{F8D106FB-1964-4547-A4CA-50BA3EC04741}
  9
$VERSIONGUID
  2
{FAEB1C32-E019-11D5-929B-00C0DF256EC4}
  9
$EXTNAMES
290
     1
  9
$PSVPSCALE
 40
0.0
  9
$OLESTARTUP
290
     0
  0
ENDSEC
  0
SECTION
  2
CLASSES
  0
CLASS
  1
ACDBDICTIONARYWDFLT
  2
AcDbDictionaryWithDefault
  3
ObjectDBX Classes
 90
        0
280
     0
281
     0
  0
CLASS
  1
VISUALSTYLE
  2
AcDbVisualStyle
  3
ObjectDBX Classes
 90
     4095
280
     0
281
     0
  0
CLASS
  1
MATERIAL
  2
AcDbMaterial
  3
ObjectDBX Classes
 90
     1153
280
     0
281
     0
  0
CLASS
  1
DICTIONARYVAR
  2
AcDbDictionaryVar
  3
ObjectDBX Classes
 90
        0
280
     0
281
     0
  0
CLASS
  1
ACDBPLACEHOLDER
  2
AcDbPlaceHolder
  3
ObjectDBX Classes
 90
        0
280
     0
281
     0
  0
CLASS
  1
LAYOUT
  2
AcDbLayout
  3
ObjectDBX Classes
 90
        0
280
     0
281
     0
  0
ENDSEC
  0
SECTION
  2
TABLES
  0
TABLE
  2
VPORT
  5
8
330
0
100
AcDbSymbolTable
 70
     1
  0
VPORT
  5
29
330
8
100
AcDbSymbolTableRecord
100
AcDbViewportTableRecord
  2
*Active
 70
     0
 10
0.0
 20
0.0
 11
1.0
 21
1.0
 12
344.1869158879
 22
148.5
 13
0.0
 23
0.0
 14
10.0
 24
10.0
 15
10.0
 25
10.0
 16
0.0
 26
0.0
 36
1.0
 17
0.0
 27
0.0
 37
0.0
 40
297.0
 41
1.9729729729
 42
50.0
 43
0.0
 44
0.0
 50
0.0
 51
0.0
 71
     0
 72
   100
 73
     1
 74
     3
 75
     0
 76
     0
 77
     0
 78
     0
281
     0
 65
     1
110
0.0
120
0.0
130
0.0
111
1.0
121
0.0
131
0.0
112
0.0
122
1.0
132
0.0
 79
     0
146
0.0
  0
ENDTAB
  0
TABLE
  2
LTYPE
  5
5
330
0
100
AcDbSymbolTable
 70
     1
  0
LTYPE
  5
14
330
5
100
AcDbSymbolTableRecord
100
AcDbLinetypeTableRecord
  2
ByBlock
 70
     0
  3

 72
    65
 73
     0
 40
0.0
  0
LTYPE
  5
15
330
5
100
AcDbSymbolTableRecord
100
AcDbLinetypeTableRecord
  2
ByLayer
 70
     0
  3

 72
    65
 73
     0
 40
0.0
  0
LTYPE
  5
16
330
5
100
AcDbSymbolTableRecord
100
AcDbLinetypeTableRecord
  2
Continuous
 70
     0
  3
Solid line
 72
    65
 73
     0
 40
0.0
  0
ENDTAB
  0
TABLE
  2
LAYER
  5
2
330
0
100
AcDbSymbolTable
 70
     3
  0
LAYER
  5
10
330
2
100
AcDbSymbolTableRecord
100
AcDbLayerTableRecord
  2
0
 70
     0
 62
     7
  6
Continuous
370
    -3
390
F
  0
LAYER
  5
3F
330
2
100
AcDbSymbolTableRecord
100
AcDbLayerTableRecord
  2
Default
 70
     0
 62
     7
  6
Continuous
370
    -3
390
F
  0
LAYER
  5
42
330
2
100
AcDbSymbolTableRecord
100
AcDbLayerTableRecord
  2
0012875
 70
     0
 62
     7
  6
Continuous
370
    -3
390
F
  0
ENDTAB
  0
TABLE
  2
STYLE
  5
3
330
0
100
AcDbSymbolTable
 70
     4
  0
STYLE
  5
11
330
3
100
AcDbSymbolTableRecord
100
AcDbTextStyleTableRecord
  2
Standard
 70
     0
 40
0.0
 41
1.0
 50
0.0
 71
     0
 42
2.5
  3
txt
  4

  0
STYLE
  5
11A
330
3
100
AcDbSymbolTableRecord
100
AcDbTextStyleTableRecord
  2
SEACAD_Solid_Edge_ISO
 70
     0
 40
0.0
 41
1.0
 50
0.0
 71
     0
 42
0.2
  3
seiso.ttf
  4

1001
ACAD
1000
Solid Edge ISO
1071
        0
  0
STYLE
  5
133
330
3
100
AcDbSymbolTableRecord
100
AcDbTextStyleTableRecord
  2
SEACAD_Solid_Edge_ANSIB
 70
     0
 40
0.0
 41
1.0
 50
0.0
 71
     0
 42
0.2
  3
seansbd.ttf
  4

1001
ACAD
1000
Solid Edge ANSI
1071
 33554432
  0
STYLE
  5
138
330
3
100
AcDbSymbolTableRecord
100
AcDbTextStyleTableRecord
  2
SEACAD_Solid_Edge_ANSI
 70
     0
 40
0.0
 41
1.0
 50
0.0
 71
     0
 42
0.2
  3
seans.ttf
  4

1001
ACAD
1000
Solid Edge ANSI
1071
        0
  0
ENDTAB
  0
TABLE
  2
VIEW
  5
6
330
0
100
AcDbSymbolTable
 70
     0
  0
ENDTAB
  0
TABLE
  2
UCS
  5
7
330
0
100
AcDbSymbolTable
 70
     0
  0
ENDTAB
  0
TABLE
  2
APPID
  5
9
330
0
100
AcDbSymbolTable
 70
     1
  0
APPID
  5
12
330
9
100
AcDbSymbolTableRecord
100
AcDbRegAppTableRecord
  2
ACAD
 70
     0
  0
ENDTAB
  0
TABLE
  2
DIMSTYLE
  5
A
330
0
100
AcDbSymbolTable
 70
     1
100
AcDbDimStyleTable
  0
DIMSTYLE
105
27
330
A
100
AcDbSymbolTableRecord
100
AcDbDimStyleTableRecord
  2
ISO-25
 70
     0
 41
2.5
 42
0.625
 43
3.75
 44
1.25
 73
     0
 74
     0
 77
     1
 78
     8
140
2.5
141
2.5
143
0.0393700787
147
0.625
171
     3
172
     1
178
     0
271
     2
272
     2
274
     3
278
    44
283
     0
284
     8
340
11
  0
ENDTAB
  0
TABLE
  2
BLOCK_RECORD
  5
1
330
0
100
AcDbSymbolTable
 70
    12
  0
BLOCK_RECORD
  5
1F
330
1
100
AcDbSymbolTableRecord
100
AcDbBlockTableRecord
  2
*Model_Space
340
22
  0
BLOCK_RECORD
  5
1B
330
1
100
AcDbSymbolTableRecord
100
AcDbBlockTableRecord
  2
*Paper_Space
340
1E
  0
BLOCK_RECORD
  5
40
330
1
100
AcDbSymbolTableRecord
100
AcDbBlockTableRecord
  2
SE
340
0
102
{BLKREFS
331
41
102
}
  0
BLOCK_RECORD
  5
10B
330
1
100
AcDbSymbolTableRecord
100
AcDbBlockTableRecord
  2
SE1
340
0
102
{BLKREFS
331
10C
102
}
  0
BLOCK_RECORD
  5
113
330
1
100
AcDbSymbolTableRecord
100
AcDbBlockTableRecord
  2
GDimGGroup
340
0
102
{BLKREFS
331
114
102
}
  0
BLOCK_RECORD
  5
11E
330
1
100
AcDbSymbolTableRecord
100
AcDbBlockTableRecord
  2
GDimGGroup1
340
0
102
{BLKREFS
331
11F
102
}
  0
BLOCK_RECORD
  5
128
330
1
100
AcDbSymbolTableRecord
100
AcDbBlockTableRecord
  2
GDimGGroup2
340
0
102
{BLKREFS
331
129
102
}
  0
BLOCK_RECORD
  5
132
330
1
100
AcDbSymbolTableRecord
100
AcDbBlockTableRecord
  2
SEANNOT_GROUP
340
0
102
{BLKREFS
331
18F
102
}
  0
BLOCK_RECORD
  5
137
330
1
100
AcDbSymbolTableRecord
100
AcDbBlockTableRecord
  2
SEANNOT_GROUP1
340
0
102
{BLKREFS
331
190
102
}
  0
BLOCK_RECORD
  5
13C
330
1
100
AcDbSymbolTableRecord
100
AcDbBlockTableRecord
  2
SEANNOT_GROUP2
340
0
102
{BLKREFS
331
192
102
}
  0
BLOCK_RECORD
  5
140
330
1
100
AcDbSymbolTableRecord
100
AcDbBlockTableRecord
  2
SEANNOT_GROUP3
340
0
102
{BLKREFS
331
193
102
}
  0
BLOCK_RECORD
  5
144
330
1
100
AcDbSymbolTableRecord
100
AcDbBlockTableRecord
  2
Block1
340
0
102
{BLKREFS
331
194
102
}
  0
BLOCK_RECORD
  5
18C
330
1
100
AcDbSymbolTableRecord
100
AcDbBlockTableRecord
  2
RF-Massblatt_2016
340
0
102
{BLKREFS
331
197
102
}
  0
ENDTAB
  0
ENDSEC
  0
SECTION
  2
BLOCKS
  0
BLOCK
  5
20
330
1F
100
AcDbEntity
  8
0
100
AcDbBlockBegin
  2
*Model_Space
 70
     0
 10
0.0
 20
0.0
 30
0.0
  3
*Model_Space
  1

  0
ENDBLK
  5
21
330
1F
100
AcDbEntity
  8
0
100
AcDbBlockEnd
  0
BLOCK
  5
1C
330
1B
100
AcDbEntity
 67
     1
  8
0
100
AcDbBlockBegin
  2
*Paper_Space
 70
     0
 10
0.0
 20
0.0
 30
0.0
  3
*Paper_Space
  1

  0
ENDBLK
  5
1D
330
1B
100
AcDbEntity
 67
     1
  8
0
100
AcDbBlockEnd
  0
BLOCK
  5
109
330
40
100
AcDbEntity
  8
0
100
AcDbBlockBegin
  2
SE
 70
     0
 10
0.0
 20
0.0
 30
0.0
  3
SE
  1

  0
LINE
  5
43
330
40
100
AcDbEntity
  8
0012875
  6
Continuous
 62
     7
100
AcDbLine
 10
38.7148170304
 20
119.4613228704
 30
0.0
 11
273.1148170304
 21
119.4613228704
 31
0.0
  0
LINE
  5
44
330
40
100
AcDbEntity
  8
0012875
  6
Continuous
 62
     7
100
AcDbLine
 10
273.1148170304
 20
119.4613228704
 30
0.0
 11
273.1148170304
 21
150.6613228704
 31
0.0
  0
LINE
  5
45
330
40
100
AcDbEntity
  8
0012875
  6
Continuous
 62
     7
100
AcDbLine
 10
273.1148170304
 20
150.6613228704
 30
0.0
 11
38.7148170304
 21
150.6613228704
 31
0.0
  0
LINE
  5
46
330
40
100
AcDbEntity
  8
0012875
  6
Continuous
 62
     7
100
AcDbLine
 10
38.7148170304
 20
150.6613228704
 30
0.0
 11
38.7148170304
 21
119.4613228704
 31
0.0
  0
ARC
  5
47
330
40
100
AcDbEntity
  8
0012875
  6
Continuous
 62
     7
100
AcDbCircle
 10
45.9148170304
 20
145.8613228704
 30
0.0
 40
1.679999999999993
100
AcDbArc
 50
0.0
 51
180.0
  0
LINE
  5
48
330
40
100
AcDbEntity
  8
0012875
  6
Continuous
 62
     7
100
AcDbLine
 10
44.2348170304
 20
145.8613228704
 30
0.0
 11
44.2348170304
 21
134.0213228704
 31
0.0
  0
ARC
  5
49
330
40
100
AcDbEntity
  8
0012875
  6
Continuous
 62
     7
100
AcDbCircle
 10
45.9148170304
 20
134.0213228704
 30
0.0
 40
1.679999999999993
100
AcDbArc
 50
180.0
 51
0.0
  0
LINE
  5
4A
330
40
100
AcDbEntity
  8
0012875
  6
Continuous
 62
     7
100
AcDbLine
 10
47.5948170304
 20
134.0213228704
 30
0.0
 11
47.5948170304
 21
145.8613228704
 31
0.0
  0
ARC
  5
4B
330
40
100
AcDbEntity
  8
0012875
  6
Continuous
 62
     7
100
AcDbCircle
 10
63.5148170304
 20
145.8613228704
 30
0.0
 40
1.680000000000015
100
AcDbArc
 50
0.0
 51
180.0
  0
LINE
  5
4C
330
40
100
AcDbEntity
  8
0012875
  6
Continuous
 62
     7
100
AcDbLine
 10
61.8348170304
 20
145.8613228704
 30
0.0
 11
61.8348170304
 21
134.0213228704
 31
0.0
  0
ARC
  5
4D
330
40
100
AcDbEntity
  8
0012875
  6
Continuous
 62
     7
100
AcDbCircle
 10
63.5148170304
 20
134.0213228704
 30
0.0
 40
1.680000000000004
100
AcDbArc
 50
180.0
 51
0.0
  0
LINE
  5
4E
330
40
100
AcDbEntity
  8
0012875
  6
Continuous
 62
     7
100
AcDbLine
 10
65.1948170304
 20
134.0213228704
 30
0.0
 11
65.1948170304
 21
145.8613228704
 31
0.0
  0
ARC
  5
4F
330
40
100
AcDbEntity
  8
0012875
  6
Continuous
 62
     7
100
AcDbCircle
 10
72.3148170304
 20
145.8613228704
 30
0.0
 40
1.679999999999993
100
AcDbArc
 50
0.0
 51
180.0
  0
LINE
  5
50
330
40
100
AcDbEntity
  8
0012875
  6
Continuous
 62
     7
100
AcDbLine
 10
70.6348170304
 20
145.8613228704
 30
0.0
 11
70.6348170304
 21
134.0213228704
 31
0.0
  0
ARC
  5
51
330
40
100
AcDbEntity
  8
0012875
  6
Continuous
 62
     7
100
AcDbCircle
 10
72.3148170304
 20
134.0213228704
 30
0.0
 40
1.680000000000004
100
AcDbArc
 50
180.0
 51
0.0
  0
LINE
  5
52
330
40
100
AcDbEntity
  8
0012875
  6
Continuous
 62
     7
100
AcDbLine
 10
73.9948170304
 20
134.0213228704
 30
0.0
 11
73.9948170304
 21
145.8613228704
 31
0.0
  0
ARC
  5
53
330
40
100
AcDbEntity
  8
0012875
  6
Continuous
 62
     7
100
AcDbCircle
 10
81.1148170304
 20
145.8613228704
 30
0.0
 40
1.680000000000015
100
AcDbArc
 50
0.0
 51
180.0
  0
LINE
  5
54
330
40
100
AcDbEntity
  8
0012875
  6
Continuous
 62
     7
100
AcDbLine
 10
79.4348170304
 20
145.8613228704
 30
0.0
 11
79.4348170304
 21
134.0213228704
 31
0.0
  0
ARC
  5
55
330
40
100
AcDbEntity
  8
0012875
  6
Continuous
 62
     7
100
AcDbCircle
 10
81.1148170304
 20
134.0213228704
 30
0.0
 40
1.680000000000004
100
AcDbArc
 50
180.0
 51
0.0
  0
LINE
  5
56
330
40
100
AcDbEntity
  8
0012875
  6
Continuous
 62
     7
100
AcDbLine
 10
82.7948170304
 20
134.0213228704
 30
0.0
 11
82.7948170304
 21
145.8613228704
 31
0.0
  0
ARC
  5
57
330
40
100
AcDbEntity
  8
0012875
  6
Continuous
 62
     7
100
AcDbCircle
 10
89.9148170304
 20
145.8613228704
 30
0.0
 40
1.680000000000004
100
AcDbArc
 50
0.0
 51
180.0
  0
LINE
  5
58
330
40
100
AcDbEntity
  8
0012875
  6
Continuous
 62
     7
100
AcDbLine
 10
88.2348170304
 20
145.8613228704
 30
0.0
 11
88.2348170304
 21
134.0213228704
 31
0.0
  0
ARC
  5
59
330
40
100
AcDbEntity
  8
0012875
  6
Continuous
 62
     7
100
AcDbCircle
 10
89.9148170304
 20
134.0213228704
 30
0.0
 40
1.680000000000004
100
AcDbArc
 50
180.0
 51
0.0
  0
LINE
  5
5A
330
40
100
AcDbEntity
  8
0012875
  6
Continuous
 62
     7
100
AcDbLine
 10
91.5948170304
 20
134.0213228704
 30
0.0
 11
91.5948170304
 21
145.8613228704
 31
0.0
  0
ARC
  5
5B
330
40
100
AcDbEntity
  8
0012875
  6
Continuous
 62
     7
100
AcDbCircle
 10
98.7148170304
 20
145.8613228704
 30
0.0
 40
1.680000000000004
100
AcDbArc
 50
0.0
 51
180.0
  0
LINE
  5
5C
330
40
100
AcDbEntity
  8
0012875
  6
Continuous
 62
     7
100
AcDbLine
 10
97.0348170304
 20
145.8613228704
 30
0.0
 11
97.0348170304
 21
134.0213228704
 31
0.0
  0
ARC
  5
5D
330
40
100
AcDbEntity
  8
0012875
  6
Continuous
 62
     7
100
AcDbCircle
 10
98.7148170304
 20
134.0213228704
 30
0.0
 40
1.680000000000004
100
AcDbArc
 50
180.0
 51
0.0
  0
LINE
  5
5E
330
40
100
AcDbEntity
  8
0012875
  6
Continuous
 62
     7
100
AcDbLine
 10
100.3948170304
 20
134.0213228704
 30
0.0
 11
100.3948170304
 21
145.8613228704
 31
0.0
  0
ARC
  5
5F
330
40
100
AcDbEntity
  8
0012875
  6
Continuous
 62
     7
100
AcDbCircle
 10
107.5148170304
 20
145.8613228704
 30
0.0
 40
1.679999999999993
100
AcDbArc
 50
0.0
 51
180.0
  0
LINE
  5
60
330
40
100
AcDbEntity
  8
0012875
  6
Continuous
 62
     7
100
AcDbLine
 10
105.8348170304
 20
145.8613228704
 30
0.0
 11
105.8348170304
 21
134.0213228704
 31
0.0
  0
ARC
  5
61
330
40
100
AcDbEntity
  8
0012875
  6
Continuous
 62
     7
100
AcDbCircle
 10
107.5148170304
 20
134.0213228704
 30
0.0
 40
1.680000000000004
100
AcDbArc
 50
180.0
 51
0.0
  0
LINE
  5
62
330
40
100
AcDbEntity
  8
0012875
  6
Continuous
 62
     7
100
AcDbLine
 10
109.1948170304
 20
134.0213228704
 30
0.0
 11
109.1948170304
 21
145.8613228704
 31
0.0
  0
ARC
  5
63
330
40
100
AcDbEntity
  8
0012875
  6
Continuous
 62
     7
100
AcDbCircle
 10
116.3148170304
 20
145.8613228704
 30
0.0
 40
1.679999999999998
100
AcDbArc
 50
0.0
 51
180.0
  0
LINE
  5
64
330
40
100
AcDbEntity
  8
0012875
  6
Continuous
 62
     7
100
AcDbLine
 10
114.6348170304
 20
145.8613228704
 30
0.0
 11
114.6348170304
 21
134.0213228704
 31
0.0
  0
ARC
  5
65
330
40
100
AcDbEntity
  8
0012875
  6
Continuous
 62
     7
100
AcDbCircle
 10
116.3148170304
 20
134.0213228704
 30
0.0
 40
1.679999999999998
100
AcDbArc
 50
180.0
 51
0.0
  0
LINE
  5
66
330
40
100
AcDbEntity
  8
0012875
  6
Continuous
 62
     7
100
AcDbLine
 10
117.9948170304
 20
134.0213228704
 30
0.0
 11
117.9948170304
 21
145.8613228704
 31
0.0
  0
ARC
  5
67
330
40
100
AcDbEntity
  8
0012875
  6
Continuous
 62
     7
100
AcDbCircle
 10
125.1148170304
 20
145.8613228704
 30
0.0
 40
1.679999999999998
100
AcDbArc
 50
0.0
 51
180.0
  0
LINE
  5
68
330
40
100
AcDbEntity
  8
0012875
  6
Continuous
 62
     7
100
AcDbLine
 10
123.4348170304
 20
145.8613228704
 30
0.0
 11
123.4348170304
 21
134.0213228704
 31
0.0
  0
ARC
  5
69
330
40
100
AcDbEntity
  8
0012875
  6
Continuous
 62
     7
100
AcDbCircle
 10
125.1148170304
 20
134.0213228704
 30
0.0
 40
1.679999999999998
100
AcDbArc
 50
180.0
 51
0.0
  0
LINE
  5
6A
330
40
100
AcDbEntity
  8
0012875
  6
Continuous
 62
     7
100
AcDbLine
 10
126.7948170304
 20
134.0213228704
 30
0.0
 11
126.7948170304
 21
145.8613228704
 31
0.0
  0
ARC
  5
6B
330
40
100
AcDbEntity
  8
0012875
  6
Continuous
 62
     7
100
AcDbCircle
 10
133.9148170304
 20
145.8613228704
 30
0.0
 40
1.680000000000004
100
AcDbArc
 50
0.0
 51
180.0
  0
LINE
  5
6C
330
40
100
AcDbEntity
  8
0012875
  6
Continuous
 62
     7
100
AcDbLine
 10
132.2348170304
 20
145.8613228704
 30
0.0
 11
132.2348170304
 21
134.0213228704
 31
0.0
  0
ARC
  5
6D
330
40
100
AcDbEntity
  8
0012875
  6
Continuous
 62
     7
100
AcDbCircle
 10
133.9148170304
 20
134.0213228704
 30
0.0
 40
1.680000000000004
100
AcDbArc
 50
180.0
 51
0.0
  0
LINE
  5
6E
330
40
100
AcDbEntity
  8
0012875
  6
Continuous
 62
     7
100
AcDbLine
 10
135.5948170304
 20
134.0213228704
 30
0.0
 11
135.5948170304
 21
145.8613228704
 31
0.0
  0
ARC
  5
6F
330
40
100
AcDbEntity
  8
0012875
  6
Continuous
 62
     7
100
AcDbCircle
 10
142.7148170304
 20
145.8613228704
 30
0.0
 40
1.680000000000001
100
AcDbArc
 50
0.0
 51
180.0
  0
LINE
  5
70
330
40
100
AcDbEntity
  8
0012875
  6
Continuous
 62
     7
100
AcDbLine
 10
141.0348170304
 20
145.8613228704
 30
0.0
 11
141.0348170304
 21
134.0213228704
 31
0.0
  0
ARC
  5
71
330
40
100
AcDbEntity
  8
0012875
  6
Continuous
 62
     7
100
AcDbCircle
 10
142.7148170304
 20
134.0213228704
 30
0.0
 40
1.680000000000004
100
AcDbArc
 50
180.0
 51
0.0
  0
LINE
  5
72
330
40
100
AcDbEntity
  8
0012875
  6
Continuous
 62
     7
100
AcDbLine
 10
144.3948170304
 20
134.0213228704
 30
0.0
 11
144.3948170304
 21
145.8613228704
 31
0.0
  0
ARC
  5
73
330
40
100
AcDbEntity
  8
0012875
  6
Continuous
 62
     7
100
AcDbCircle
 10
151.5148170304
 20
145.8613228704
 30
0.0
 40
1.679999999999999
100
AcDbArc
 50
0.0
 51
180.0
  0
LINE
  5
74
330
40
100
AcDbEntity
  8
0012875
  6
Continuous
 62
     7
100
AcDbLine
 10
149.8348170304
 20
145.8613228704
 30
0.0
 11
149.8348170304
 21
134.0213228704
 31
0.0
  0
ARC
  5
75
330
40
100
AcDbEntity
  8
0012875
  6
Continuous
 62
     7
100
AcDbCircle
 10
151.5148170304
 20
134.0213228704
 30
0.0
 40
1.68
100
AcDbArc
 50
180.0
 51
0.0
  0
LINE
  5
76
330
40
100
AcDbEntity
  8
0012875
  6
Continuous
 62
     7
100
AcDbLine
 10
153.1948170304
 20
134.0213228704
 30
0.0
 11
153.1948170304
 21
145.8613228704
 31
0.0
  0
ARC
  5
77
330
40
100
AcDbEntity
  8
0012875
  6
Continuous
 62
     7
100
AcDbCircle
 10
160.3148170304
 20
145.8613228704
 30
0.0
 40
1.68
100
AcDbArc
 50
0.0
 51
180.0
  0
LINE
  5
78
330
40
100
AcDbEntity
  8
0012875
  6
Continuous
 62
     7
100
AcDbLine
 10
158.6348170304
 20
145.8613228704
 30
0.0
 11
158.6348170304
 21
134.0213228704
 31
0.0
  0
ARC
  5
79
330
40
100
AcDbEntity
  8
0012875
  6
Continuous
 62
     7
100
AcDbCircle
 10
160.3148170304
 20
134.0213228704
 30
0.0
 40
1.68
100
AcDbArc
 50
180.0
 51
0.0
  0
LINE
  5
7A
330
40
100
AcDbEntity
  8
0012875
  6
Continuous
 62
     7
100
AcDbLine
 10
161.9948170304
 20
134.0213228704
 30
0.0
 11
161.9948170304
 21
145.8613228704
 31
0.0
  0
ARC
  5
7B
330
40
100
AcDbEntity
  8
0012875
  6
Continuous
 62
     7
100
AcDbCircle
 10
169.1148170304
 20
145.8613228704
 30
0.0
 40
1.680000000000001
100
AcDbArc
 50
0.0
 51
180.0
  0
LINE
  5
7C
330
40
100
AcDbEntity
  8
0012875
  6
Continuous
 62
     7
100
AcDbLine
 10
167.4348170304
 20
145.8613228704
 30
0.0
 11
167.4348170304
 21
134.0213228704
 31
0.0
  0
ARC
  5
7D
330
40
100
AcDbEntity
  8
0012875
  6
Continuous
 62
     7
100
AcDbCircle
 10
169.1148170304
 20
134.0213228704
 30
0.0
 40
1.68
100
AcDbArc
 50
180.0
 51
0.0
  0
LINE
  5
7E
330
40
100
AcDbEntity
  8
0012875
  6
Continuous
 62
     7
100
AcDbLine
 10
170.7948170304
 20
134.0213228704
 30
0.0
 11
170.7948170304
 21
145.8613228704
 31
0.0
  0
ARC
  5
7F
330
40
100
AcDbEntity
  8
0012875
  6
Continuous
 62
     7
100
AcDbCircle
 10
177.9148170304
 20
145.8613228704
 30
0.0
 40
1.680000000000001
100
AcDbArc
 50
0.0
 51
180.0
  0
LINE
  5
80
330
40
100
AcDbEntity
  8
0012875
  6
Continuous
 62
     7
100
AcDbLine
 10
176.2348170304
 20
145.8613228704
 30
0.0
 11
176.2348170304
 21
134.0213228704
 31
0.0
  0
ARC
  5
81
330
40
100
AcDbEntity
  8
0012875
  6
Continuous
 62
     7
100
AcDbCircle
 10
177.9148170304
 20
134.0213228704
 30
0.0
 40
1.680000000000004
100
AcDbArc
 50
180.0
 51
0.0
  0
LINE
  5
82
330
40
100
AcDbEntity
  8
0012875
  6
Continuous
 62
     7
100
AcDbLine
 10
179.5948170304
 20
134.0213228704
 30
0.0
 11
179.5948170304
 21
145.8613228704
 31
0.0
  0
ARC
  5
83
330
40
100
AcDbEntity
  8
0012875
  6
Continuous
 62
     7
100
AcDbCircle
 10
186.7148170304
 20
145.8613228704
 30
0.0
 40
1.679999999999993
100
AcDbArc
 50
0.0
 51
180.0
  0
LINE
  5
84
330
40
100
AcDbEntity
  8
0012875
  6
Continuous
 62
     7
100
AcDbLine
 10
185.0348170304
 20
145.8613228704
 30
0.0
 11
185.0348170304
 21
134.0213228704
 31
0.0
  0
ARC
  5
85
330
40
100
AcDbEntity
  8
0012875
  6
Continuous
 62
     7
100
AcDbCircle
 10
186.7148170304
 20
134.0213228704
 30
0.0
 40
1.679999999999998
100
AcDbArc
 50
180.0
 51
0.0
  0
LINE
  5
86
330
40
100
AcDbEntity
  8
0012875
  6
Continuous
 62
     7
100
AcDbLine
 10
188.3948170304
 20
134.0213228704
 30
0.0
 11
188.3948170304
 21
145.8613228704
 31
0.0
  0
ARC
  5
87
330
40
100
AcDbEntity
  8
0012875
  6
Continuous
 62
     7
100
AcDbCircle
 10
195.5148170304
 20
145.8613228704
 30
0.0
 40
1.680000000000004
100
AcDbArc
 50
0.0
 51
180.0
  0
LINE
  5
88
330
40
100
AcDbEntity
  8
0012875
  6
Continuous
 62
     7
100
AcDbLine
 10
193.8348170304
 20
145.8613228704
 30
0.0
 11
193.8348170304
 21
134.0213228704
 31
0.0
  0
ARC
  5
89
330
40
100
AcDbEntity
  8
0012875
  6
Continuous
 62
     7
100
AcDbCircle
 10
195.5148170304
 20
134.0213228704
 30
0.0
 40
1.679999999999998
100
AcDbArc
 50
180.0
 51
0.0
  0
LINE
  5
8A
330
40
100
AcDbEntity
  8
0012875
  6
Continuous
 62
     7
100
AcDbLine
 10
197.1948170304
 20
134.0213228704
 30
0.0
 11
197.1948170304
 21
145.8613228704
 31
0.0
  0
ARC
  5
8B
330
40
100
AcDbEntity
  8
0012875
  6
Continuous
 62
     7
100
AcDbCircle
 10
204.3148170304
 20
145.8613228704
 30
0.0
 40
1.680000000000004
100
AcDbArc
 50
0.0
 51
180.0
  0
LINE
  5
8C
330
40
100
AcDbEntity
  8
0012875
  6
Continuous
 62
     7
100
AcDbLine
 10
202.6348170304
 20
145.8613228704
 30
0.0
 11
202.6348170304
 21
134.0213228704
 31
0.0
  0
ARC
  5
8D
330
40
100
AcDbEntity
  8
0012875
  6
Continuous
 62
     7
100
AcDbCircle
 10
204.3148170304
 20
134.0213228704
 30
0.0
 40
1.679999999999998
100
AcDbArc
 50
180.0
 51
0.0
  0
LINE
  5
8E
330
40
100
AcDbEntity
  8
0012875
  6
Continuous
 62
     7
100
AcDbLine
 10
205.9948170304
 20
134.0213228704
 30
0.0
 11
205.9948170304
 21
145.8613228704
 31
0.0
  0
ARC
  5
8F
330
40
100
AcDbEntity
  8
0012875
  6
Continuous
 62
     7
100
AcDbCircle
 10
213.1148170304
 20
145.8613228704
 30
0.0
 40
1.680000000000015
100
AcDbArc
 50
0.0
 51
180.0
  0
LINE
  5
90
330
40
100
AcDbEntity
  8
0012875
  6
Continuous
 62
     7
100
AcDbLine
 10
211.4348170304
 20
145.8613228704
 30
0.0
 11
211.4348170304
 21
134.0213228704
 31
0.0
  0
ARC
  5
91
330
40
100
AcDbEntity
  8
0012875
  6
Continuous
 62
     7
100
AcDbCircle
 10
213.1148170304
 20
134.0213228704
 30
0.0
 40
1.680000000000004
100
AcDbArc
 50
180.0
 51
0.0
  0
LINE
  5
92
330
40
100
AcDbEntity
  8
0012875
  6
Continuous
 62
     7
100
AcDbLine
 10
214.7948170304
 20
134.0213228704
 30
0.0
 11
214.7948170304
 21
145.8613228704
 31
0.0
  0
ARC
  5
93
330
40
100
AcDbEntity
  8
0012875
  6
Continuous
 62
     7
100
AcDbCircle
 10
221.9148170304
 20
145.8613228704
 30
0.0
 40
1.680000000000004
100
AcDbArc
 50
0.0
 51
180.0
  0
LINE
  5
94
330
40
100
AcDbEntity
  8
0012875
  6
Continuous
 62
     7
100
AcDbLine
 10
220.2348170304
 20
145.8613228704
 30
0.0
 11
220.2348170304
 21
134.0213228704
 31
0.0
  0
ARC
  5
95
330
40
100
AcDbEntity
  8
0012875
  6
Continuous
 62
     7
100
AcDbCircle
 10
221.9148170304
 20
134.0213228704
 30
0.0
 40
1.680000000000004
100
AcDbArc
 50
180.0
 51
0.0
  0
LINE
  5
96
330
40
100
AcDbEntity
  8
0012875
  6
Continuous
 62
     7
100
AcDbLine
 10
223.5948170304
 20
134.0213228704
 30
0.0
 11
223.5948170304
 21
145.8613228704
 31
0.0
  0
ARC
  5
97
330
40
100
AcDbEntity
  8
0012875
  6
Continuous
 62
     7
100
AcDbCircle
 10
230.7148170304
 20
145.8613228704
 30
0.0
 40
1.680000000000015
100
AcDbArc
 50
0.0
 51
180.0
  0
LINE
  5
98
330
40
100
AcDbEntity
  8
0012875
  6
Continuous
 62
     7
100
AcDbLine
 10
229.0348170304
 20
145.8613228704
 30
0.0
 11
229.0348170304
 21
134.0213228704
 31
0.0
  0
ARC
  5
99
330
40
100
AcDbEntity
  8
0012875
  6
Continuous
 62
     7
100
AcDbCircle
 10
230.7148170304
 20
134.0213228704
 30
0.0
 40
1.680000000000004
100
AcDbArc
 50
180.0
 51
0.0
  0
LINE
  5
9A
330
40
100
AcDbEntity
  8
0012875
  6
Continuous
 62
     7
100
AcDbLine
 10
232.3948170304
 20
134.0213228704
 30
0.0
 11
232.3948170304
 21
145.8613228704
 31
0.0
  0
ARC
  5
9B
330
40
100
AcDbEntity
  8
0012875
  6
Continuous
 62
     7
100
AcDbCircle
 10
239.5148170304
 20
145.8613228704
 30
0.0
 40
1.679999999999993
100
AcDbArc
 50
0.0
 51
180.0
  0
LINE
  5
9C
330
40
100
AcDbEntity
  8
0012875
  6
Continuous
 62
     7
100
AcDbLine
 10
237.8348170304
 20
145.8613228704
 30
0.0
 11
237.8348170304
 21
134.0213228704
 31
0.0
  0
ARC
  5
9D
330
40
100
AcDbEntity
  8
0012875
  6
Continuous
 62
     7
100
AcDbCircle
 10
239.5148170304
 20
134.0213228704
 30
0.0
 40
1.679999999999993
100
AcDbArc
 50
180.0
 51
0.0
  0
LINE
  5
9E
330
40
100
AcDbEntity
  8
0012875
  6
Continuous
 62
     7
100
AcDbLine
 10
241.1948170304
 20
134.0213228704
 30
0.0
 11
241.1948170304
 21
145.8613228704
 31
0.0
  0
ARC
  5
9F
330
40
100
AcDbEntity
  8
0012875
  6
Continuous
 62
     7
100
AcDbCircle
 10
248.3148170304
 20
145.8613228704
 30
0.0
 40
1.680000000000015
100
AcDbArc
 50
0.0
 51
180.0
  0
LINE
  5
A0
330
40
100
AcDbEntity
  8
0012875
  6
Continuous
 62
     7
100
AcDbLine
 10
246.6348170304
 20
145.8613228704
 30
0.0
 11
246.6348170304
 21
134.0213228704
 31
0.0
  0
ARC
  5
A1
330
40
100
AcDbEntity
  8
0012875
  6
Continuous
 62
     7
100
AcDbCircle
 10
248.3148170304
 20
134.0213228704
 30
0.0
 40
1.680000000000015
100
AcDbArc
 50
180.0
 51
0.0
  0
LINE
  5
A2
330
40
100
AcDbEntity
  8
0012875
  6
Continuous
 62
     7
100
AcDbLine
 10
249.9948170304
 20
134.0213228704
 30
0.0
 11
249.9948170304
 21
145.8613228704
 31
0.0
  0
ARC
  5
A3
330
40
100
AcDbEntity
  8
0012875
  6
Continuous
 62
     7
100
AcDbCircle
 10
257.1148170304
 20
145.8613228704
 30
0.0
 40
1.679999999999993
100
AcDbArc
 50
0.0
 51
180.0
  0
LINE
  5
A4
330
40
100
AcDbEntity
  8
0012875
  6
Continuous
 62
     7
100
AcDbLine
 10
255.4348170304
 20
145.8613228704
 30
0.0
 11
255.4348170304
 21
134.0213228704
 31
0.0
  0
ARC
  5
A5
330
40
100
AcDbEntity
  8
0012875
  6
Continuous
 62
     7
100
AcDbCircle
 10
257.1148170304
 20
134.0213228704
 30
0.0
 40
1.679999999999982
100
AcDbArc
 50
180.0
 51
0.0
  0
LINE
  5
A6
330
40
100
AcDbEntity
  8
0012875
  6
Continuous
 62
     7
100
AcDbLine
 10
258.7948170304
 20
134.0213228704
 30
0.0
 11
258.7948170304
 21
145.8613228704
 31
0.0
  0
ARC
  5
A7
330
40
100
AcDbEntity
  8
0012875
  6
Continuous
 62
     7
100
AcDbCircle
 10
265.9148170304
 20
145.8613228704
 30
0.0
 40
1.679999999999993
100
AcDbArc
 50
0.0
 51
180.0
  0
LINE
  5
A8
330
40
100
AcDbEntity
  8
0012875
  6
Continuous
 62
     7
100
AcDbLine
 10
264.2348170304
 20
145.8613228704
 30
0.0
 11
264.2348170304
 21
134.0213228704
 31
0.0
  0
ARC
  5
A9
330
40
100
AcDbEntity
  8
0012875
  6
Continuous
 62
     7
100
AcDbCircle
 10
265.9148170304
 20
134.0213228704
 30
0.0
 40
1.679999999999971
100
AcDbArc
 50
180.0
 51
0.0
  0
LINE
  5
AA
330
40
100
AcDbEntity
  8
0012875
  6
Continuous
 62
     7
100
AcDbLine
 10
267.5948170304
 20
134.0213228704
 30
0.0
 11
267.5948170304
 21
145.8613228704
 31
0.0
  0
ARC
  5
AB
330
40
100
AcDbEntity
  8
0012875
  6
Continuous
 62
     7
100
AcDbCircle
 10
54.7148170304
 20
145.8613228704
 30
0.0
 40
1.679999999999993
100
AcDbArc
 50
0.0
 51
180.0
  0
LINE
  5
AC
330
40
100
AcDbEntity
  8
0012875
  6
Continuous
 62
     7
100
AcDbLine
 10
53.0348170304
 20
145.8613228704
 30
0.0
 11
53.0348170304
 21
134.0213228704
 31
0.0
  0
ARC
  5
AD
330
40
100
AcDbEntity
  8
0012875
  6
Continuous
 62
     7
100
AcDbCircle
 10
54.7148170304
 20
134.0213228704
 30
0.0
 40
1.679999999999993
100
AcDbArc
 50
180.0
 51
0.0
  0
LINE
  5
AE
330
40
100
AcDbEntity
  8
0012875
  6
Continuous
 62
     7
100
AcDbLine
 10
56.3948170304
 20
134.0213228704
 30
0.0
 11
56.3948170304
 21
145.8613228704
 31
0.0
  0
LINE
  5
AF
330
40
100
AcDbEntity
  8
0012875
  6
Continuous
 62
     7
100
AcDbLine
 10
53.8665926926
 20
124.6157231909
 30
0.0
 11
53.6251045592
 21
124.6157231909
 31
0.0
  0
SPLINE
  5
B0
330
40
100
AcDbEntity
  8
0012875
  6
Continuous
 62
     7
100
AcDbSpline
210
0.0
220
0.0
230
1.0
 70
     8
 71
     3
 72
    18
 73
    14
 74
     0
 42
0.0000000075539547
 43
0.0000000001
 12
1.0
 22
0.0
 32
0.0
 13
1.0
 23
0.0
 33
0.0
 40
0.0
 40
0.0
 40
0.0
 40
0.0
 40
0.623077154773411
 40
0.623077154773411
 40
0.623077154773411
 40
0.7034771442276955
 40
0.7034771442276955
 40
0.8213971287606437
 40
0.8213971287606437
 40
0.8213971287606437
 40
0.8938736562200886
 40
0.8938736562200886
 40
1.0
 40
1.0
 40
1.0
 40
1.0
 10
53.62510455922121
 20
124.6157231909465
 30
0.0
 10
53.56906863875936
 20
124.3475512858791
 30
0.0
 10
53.51303271829752
 20
124.0793793808118
 30
0.0
 10
53.45699679783571
 20
123.8112074757444
 30
0.0
 10
53.43553529944752
 20
123.7084988763152
 30
0.0
 10
53.42497627185752
 20
123.6471022801062
 30
0.0
 10
53.42497627185752
 20
123.5977373025565
 30
0.0
 10
53.43431559193449
 20
123.5750560966553
 30
0.0
 10
53.45032585492357
 20
123.5590458336662
 30
0.0
 10
53.46633611791267
 20
123.5430355706771
 30
0.0
 10
53.49568826672601
 20
123.536364627765
 30
0.0
 10
53.58774727891331
 20
123.536364627765
 30
0.0
 10
53.63711225646302
 20
123.5417013820947
 30
0.0
 10
53.67980629110061
 20
123.5510407021716
 30
0.0
  0
LINE
  5
B1
330
40
100
AcDbEntity
  8
0012875
  6
Continuous
 62
     7
100
AcDbLine
 10
53.6798062911
 20
123.5510407022
 30
0.0
 11
53.638446445
 21
123.3495782262
 31
0.0
  0
SPLINE
  5
B2
330
40
100
AcDbEntity
  8
0012875
  6
Continuous
 62
     7
100
AcDbSpline
210
0.0
220
0.0
230
1.0
 70
     8
 71
     3
 72
    18
 73
    14
 74
     0
 42
0.0000000059041247
 43
0.0000000001
 12
1.0
 22
0.0
 32
0.0
 13
1.0
 23
0.0
 33
0.0
 40
0.0
 40
0.0
 40
0.0
 40
0.0
 40
0.0919913534692661
 40
0.0919913534692661
 40
0.2518810868801273
 40
0.2518810868801273
 40
0.2518810868801273
 40
0.4099000133378546
 40
0.4099000133378546
 40
0.4856174155988487
 40
0.4856174155988487
 40
0.4856174155988487
 40
1.0
 40
1.0
 40
1.0
 40
1.0
 10
53.63844644504545
 20
123.3495782262255
 30
0.0
 10
53.57974214741876
 20
123.3335679632364
 30
0.0
 10
53.52237203837451
 20
123.3255628317419
 30
0.0
 10
53.36894035139568
 20
123.3255628317419
 30
0.0
 10
53.29022322503263
 20
123.3495782262255
 30
0.0
 10
53.23285311598836
 20
123.3976090151928
 30
0.0
 10
53.188580538993
 20
123.4346744284912
 30
0.0
 10
53.16747787544955
 20
123.4843312730504
 30
0.0
 10
53.16747787544955
 20
123.5790586624025
 30
0.0
 10
53.17948557269136
 20
123.6537732230183
 30
0.0
 10
53.20216677859261
 20
123.7685134411068
 30
0.0
 10
53.25809899634615
 20
124.0514646603306
 30
0.0
 10
53.31957537384595
 20
124.3333199409999
 30
0.0
 10
53.37827967147264
 20
124.6157231909465
 30
0.0
  0
LINE
  5
B3
330
40
100
AcDbEntity
  8
0012875
  6
Continuous
 62
     7
100
AcDbLine
 10
53.3782796715
 20
124.6157231909
 30
0.0
 11
53.1834881384
 21
124.6157231909
 31
0.0
  0
LINE
  5
B4
330
40
100
AcDbEntity
  8
0012875
  6
Continuous
 62
     7
100
AcDbLine
 10
53.1834881384
 20
124.6157231909
 30
0.0
 11
53.2221796073
 21
124.8065121582
 31
0.0
  0
LINE
  5
B5
330
40
100
AcDbEntity
  8
0012875
  6
Continuous
 62
     7
100
AcDbLine
 10
53.2221796073
 20
124.8065121582
 30
0.0
 11
53.4183053289
 21
124.8065121582
 31
0.0
  0
LINE
  5
B6
330
40
100
AcDbEntity
  8
0012875
  6
Continuous
 62
     7
100
AcDbLine
 10
53.4183053289
 20
124.8065121582
 30
0.0
 11
53.491685701
 21
125.1614063212
 31
0.0
  0
LINE
  5
B7
330
40
100
AcDbEntity
  8
0012875
  6
Continuous
 62
     7
100
AcDbLine
 10
53.491685701
 20
125.1614063212
 30
0.0
 11
53.7731994919
 21
125.3308482711
 31
0.0
  0
LINE
  5
B8
330
40
100
AcDbEntity
  8
0012875
  6
Continuous
 62
     7
100
AcDbLine
 10
53.7731994919
 20
125.3308482711
 30
0.0
 11
53.6637960281
 21
124.8065121582
 31
0.0
  0
LINE
  5
B9
330
40
100
AcDbEntity
  8
0012875
  6
Continuous
 62
     7
100
AcDbLine
 10
53.6637960281
 20
124.8065121582
 30
0.0
 11
53.9066183501
 21
124.8065121582
 31
0.0
  0
LINE
  5
BA
330
40
100
AcDbEntity
  8
0012875
  6
Continuous
 62
     7
100
AcDbLine
 10
53.9066183501
 20
124.8065121582
 30
0.0
 11
53.8665926926
 21
124.6157231909
 31
0.0
  0
LINE
  5
BB
330
40
100
AcDbEntity
  8
0012875
  6
Continuous
 62
     7
100
AcDbLine
 10
45.0833219822
 20
123.72585052
 30
0.0
 11
45.0833219822
 21
122.0569601545
 31
0.0
  0
LINE
  5
BC
330
40
100
AcDbEntity
  8
0012875
  6
Continuous
 62
     7
100
AcDbLine
 10
45.0833219822
 20
122.0569601545
 30
0.0
 11
44.5836542081
 21
122.0569601545
 31
0.0
  0
LINE
  5
BD
330
40
100
AcDbEntity
  8
0012875
  6
Continuous
 62
     7
100
AcDbLine
 10
44.5836542081
 20
122.0569601545
 30
0.0
 11
44.5836542081
 21
125.8169601545
 31
0.0
  0
SPLINE
  5
BE
330
40
100
AcDbEntity
  8
0012875
  6
Continuous
 62
     7
100
AcDbSpline
210
0.0
220
0.0
230
1.0
 70
     8
 71
     3
 72
    21
 73
    17
 74
     0
 42
0.0000000018900041
 43
0.0000000001
 12
1.0
 22
0.0
 32
0.0
 13
1.0
 23
0.0
 33
0.0
 40
0.0
 40
0.0
 40
0.0
 40
0.0
 40
0.3188524755255804
 40
0.3188524755255804
 40
0.3188524755255804
 40
0.4466871992896583
 40
0.4466871992896583
 40
0.5745219230537378
 40
0.5745219230537378
 40
0.5745219230537378
 40
0.6851965081129122
 40
0.6851965081129122
 40
0.8296133447145184
 40
0.8296133447145184
 40
0.8296133447145184
 40
1.0
 40
1.0
 40
1.0
 40
1.0
 10
44.5836542081263
 20
125.8169601545038
 30
0.0
 10
45.13995099660913
 20
125.8169601545038
 30
0.0
 10
45.69624778509196
 20
125.8169601545038
 30
0.0
 10
46.25254457357479
 20
125.8169601545038
 30
0.0
 10
46.58732198221267
 20
125.8169601545038
 30
0.0
 10
46.84215254699672
 20
125.7844817491882
 30
0.0
 10
47.19191998885719
 20
125.6495714501849
 30
0.0
 10
47.33182696560137
 20
125.5296511844041
 30
0.0
 10
47.43675719815951
 20
125.3572658023443
 30
0.0
 10
47.54057782366073
 20
125.1867033461638
 30
0.0
 10
47.59415254699672
 20
124.9975050050021
 30
0.0
 10
47.59415254699672
 20
124.5253189584905
 30
0.0
 10
47.5067106865316
 20
124.3004684601516
 30
0.0
 10
47.33432530447179
 20
124.1180897226101
 30
0.0
 10
47.16069273382028
 20
123.9343914956889
 30
0.0
 10
46.89461766327578
 20
123.8182890581583
 30
0.0
 10
46.53235852706317
 20
123.7683222807496
 30
0.0
  0
SPLINE
  5
BF
330
40
100
AcDbEntity
  8
0012875
  6
Continuous
 62
     7
100
AcDbSpline
210
0.0
220
0.0
230
1.0
 70
     8
 71
     3
 72
    14
 73
    10
 74
     0
 42
0.0000000057188637
 43
0.0000000001
 12
1.0
 22
0.0
 32
0.0
 13
1.0
 23
0.0
 33
0.0
 40
0.0
 40
0.0
 40
0.0
 40
0.0
 40
0.2031950052268725
 40
0.2031950052268725
 40
0.2031950052268725
 40
0.5753525708707701
 40
0.5753525708707701
 40
0.5753525708707701
 40
1.0
 40
1.0
 40
1.0
 40
1.0
 10
46.53235852706317
 20
123.7683222807496
 30
0.0
 10
46.66477048719606
 20
123.7058638089889
 30
0.0
 10
46.76470404201334
 20
123.6409069983576
 30
0.0
 10
46.832159191515
 20
123.5809468654673
 30
0.0
 10
46.98009531249106
 20
123.4494480912663
 30
0.0
 10
47.11447148387379
 20
123.278647862145
 30
0.0
 10
47.24438510513625
 20
123.0812790913809
 30
0.0
 10
47.38020986877567
 20
122.8749299312364
 30
0.0
 10
47.51219244317566
 20
122.6660517351368
 30
0.0
 10
47.64385083721215
 20
122.4569601545038
 30
0.0
  0
LINE
  5
C0
330
40
100
AcDbEntity
  8
0012875
  6
Continuous
 62
     7
100
AcDbLine
 10
57.3606892549
 20
122.0569601545
 30
0.0
 11
47.2743651716
 21
122.0569601545
 31
0.0
  0
LINE
  5
C1
330
40
100
AcDbEntity
  8
0012875
  6
Continuous
 62
     7
100
AcDbLine
 10
45.0833219822
 20
125.402235902
 30
0.0
 11
45.0833219822
 21
124.1555648057
 31
0.0
  0
SPLINE
  5
C2
330
40
100
AcDbEntity
  8
0012875
  6
Continuous
 62
     7
100
AcDbSpline
210
0.0
220
0.0
230
1.0
 70
     8
 71
     3
 72
    25
 73
    21
 74
     0
 42
0.0000000021171731
 43
0.0000000001
 12
1.0
 22
0.0
 32
0.0
 13
1.0
 23
0.0
 33
0.0
 40
0.0
 40
0.0
 40
0.0
 40
0.0
 40
0.2284802880085945
 40
0.2284802880085945
 40
0.2284802880085945
 40
0.3442035663753351
 40
0.3442035663753351
 40
0.3442035663753351
 40
0.424907704947
 40
0.424907704947
 40
0.424907704947
 40
0.4990904865566665
 40
0.4990904865566665
 40
0.6065798231747555
 40
0.6065798231747555
 40
0.6065798231747555
 40
0.7458944041694316
 40
0.7458944041694316
 40
0.7458944041694316
 40
1.0
 40
1.0
 40
1.0
 40
1.0
 10
45.08332198221268
 20
124.1555648056666
 30
0.0
 10
45.43975166106095
 20
124.1555648056666
 30
0.0
 10
45.79618133990923
 20
124.1555648056666
 30
0.0
 10
46.15261101875752
 20
124.1555648056666
 30
0.0
 10
46.37995985596681
 20
124.1555648056666
 30
0.0
 10
46.55984025463791
 20
124.1805481943709
 30
0.0
 10
46.68725553702995
 20
124.2255182940387
 30
0.0
 10
46.81545491346746
 20
124.2707651327813
 30
0.0
 10
46.91460437423925
 20
124.3479368986898
 30
0.0
 10
46.97956118487048
 20
124.452867131248
 30
0.0
 10
47.04409204920248
 20
124.5571092967074
 30
0.0
 10
47.07949473968775
 20
124.6677242741051
 30
0.0
 10
47.07949473968775
 20
124.9675249385569
 30
0.0
 10
47.01703626792694
 20
125.1149269319124
 30
0.0
 10
46.8871226466645
 20
125.2273521810819
 30
0.0
 10
46.75597279935914
 20
125.3408472412499
 30
0.0
 10
46.55234523802662
 20
125.3997375631417
 30
0.0
 10
46.27253128453826
 20
125.4022359020121
 30
0.0
 10
45.87615978225654
 20
125.4057749332825
 30
0.0
 10
45.47972508298785
 20
125.4022359020121
 30
0.0
 10
45.08332198221268
 20
125.4022359020121
 30
0.0
  0
SPLINE
  5
C3
330
40
100
AcDbEntity
  8
0012875
  6
Continuous
 62
     7
100
AcDbSpline
210
0.0
220
0.0
230
1.0
 70
     8
 71
     3
 72
    22
 73
    18
 74
     0
 42
0.000000003307602
 43
0.0000000001
 12
1.0
 22
0.0
 32
0.0
 13
1.0
 23
0.0
 33
0.0
 40
0.0
 40
0.0
 40
0.0
 40
0.0
 40
0.3068698414100483
 40
0.3068698414100483
 40
0.3068698414100483
 40
0.5162606884525387
 40
0.5162606884525387
 40
0.5162606884525387
 40
0.6164695960135068
 40
0.6164695960135068
 40
0.7166785035744724
 40
0.7166785035744724
 40
0.7166785035744724
 40
0.8088759039826804
 40
0.8088759039826804
 40
0.8088759039826804
 40
1.0
 40
1.0
 40
1.0
 40
1.0
 10
47.27436517158143
 20
122.0569601545038
 30
0.0
 10
47.10864202650946
 20
122.3176201766522
 30
0.0
 10
46.94291888143746
 20
122.5782801988006
 30
0.0
 10
46.77719573636549
 20
122.838940220949
 30
0.0
 10
46.63295986132803
 20
123.0658036826913
 30
0.0
 10
46.51237181609972
 20
123.2386744402181
 30
0.0
 10
46.41743493902331
 20
123.3585947059988
 30
0.0
 10
46.32371390242171
 20
123.476979173285
 30
0.0
 10
46.24005287922265
 20
123.5609601545038
 30
0.0
 10
46.09015254699671
 20
123.6558970315802
 30
0.0
 10
46.01520238088377
 20
123.6883754368958
 30
0.0
 10
45.93775387590038
 20
123.7058638089889
 30
0.0
 10
45.88039597319979
 20
123.7188155934696
 30
0.0
 10
45.78785354367446
 20
123.7233521810819
 30
0.0
 10
45.66043826128244
 20
123.7258505199523
 30
0.0
 10
45.46814010065466
 20
123.7296210721215
 30
0.0
 10
45.27569407523593
 20
123.7258505199523
 30
0.0
 10
45.08332198221268
 20
123.7258505199523
 30
0.0
  0
LINE
  5
C4
330
40
100
AcDbEntity
  8
0012875
  6
Continuous
 62
     7
100
AcDbLine
 10
43.8891160021
 20
122.5016644734
 30
0.0
 11
43.8891160021
 21
122.0569601545
 31
0.0
  0
LINE
  5
C5
330
40
100
AcDbEntity
  8
0012875
  6
Continuous
 62
     7
100
AcDbLine
 10
43.8891160021
 20
122.0569601545
 30
0.0
 11
41.1009698227
 21
122.0569601545
 31
0.0
  0
LINE
  5
C6
330
40
100
AcDbEntity
  8
0012875
  6
Continuous
 62
     7
100
AcDbLine
 10
41.1009698227
 20
122.0569601545
 30
0.0
 11
41.1009698227
 21
125.8169601545
 31
0.0
  0
LINE
  5
C7
330
40
100
AcDbEntity
  8
0012875
  6
Continuous
 62
     7
100
AcDbLine
 10
41.1009698227
 20
125.8169601545
 30
0.0
 11
43.8016741417
 21
125.8169601545
 31
0.0
  0
LINE
  5
C8
330
40
100
AcDbEntity
  8
0012875
  6
Continuous
 62
     7
100
AcDbLine
 10
43.8016741417
 20
125.8169601545
 30
0.0
 11
43.8016741417
 21
125.3722558356
 31
0.0
  0
LINE
  5
C9
330
40
100
AcDbEntity
  8
0012875
  6
Continuous
 62
     7
100
AcDbLine
 10
43.8016741417
 20
125.3722558356
 30
0.0
 11
41.598139258
 21
125.3722558356
 31
0.0
  0
LINE
  5
CA
330
40
100
AcDbEntity
  8
0012875
  6
Continuous
 62
     7
100
AcDbLine
 10
41.598139258
 20
125.3722558356
 30
0.0
 11
41.598139258
 21
124.2305149718
 31
0.0
  0
LINE
  5
CB
330
40
100
AcDbEntity
  8
0012875
  6
Continuous
 62
     7
100
AcDbLine
 10
41.598139258
 20
124.2305149718
 30
0.0
 11
43.6617671649
 21
124.2305149718
 31
0.0
  0
LINE
  5
CC
330
40
100
AcDbEntity
  8
0012875
  6
Continuous
 62
     7
100
AcDbLine
 10
43.6617671649
 20
124.2305149718
 30
0.0
 11
43.6617671649
 21
123.783312314
 31
0.0
  0
LINE
  5
CD
330
40
100
AcDbEntity
  8
0012875
  6
Continuous
 62
     7
100
AcDbLine
 10
43.6617671649
 20
123.783312314
 30
0.0
 11
41.598139258
 21
123.783312314
 31
0.0
  0
LINE
  5
CE
330
40
100
AcDbEntity
  8
0012875
  6
Continuous
 62
     7
100
AcDbLine
 10
41.598139258
 20
123.783312314
 30
0.0
 11
41.598139258
 21
122.5016644734
 31
0.0
  0
LINE
  5
CF
330
40
100
AcDbEntity
  8
0012875
  6
Continuous
 62
     7
100
AcDbLine
 10
41.598139258
 20
122.5016644734
 30
0.0
 11
43.8891160021
 21
122.5016644734
 31
0.0
  0
LINE
  5
D0
330
40
100
AcDbEntity
  8
0012875
  6
Continuous
 62
     7
100
AcDbLine
 10
66.2585362462
 20
125.1040362121
 30
0.0
 11
66.1077729364
 21
124.5943761736
 31
0.0
  0
SPLINE
  5
D1
330
40
100
AcDbEntity
  8
0012875
  6
Continuous
 62
     7
100
AcDbSpline
210
0.0
220
0.0
230
1.0
 70
     8
 71
     3
 72
    33
 73
    29
 74
     0
 42
0.000000002846521
 43
0.0000000001
 12
1.0
 22
0.0
 32
0.0
 13
1.0
 23
0.0
 33
0.0
 40
0.0
 40
0.0
 40
0.0
 40
0.0
 40
0.0572207626675489
 40
0.0572207626675489
 40
0.0572207626675489
 40
0.1087818882788105
 40
0.1087818882788105
 40
0.2323137517224593
 40
0.2323137517224593
 40
0.2323137517224593
 40
0.3699564680451257
 40
0.3699564680451257
 40
0.4909152187529233
 40
0.4909152187529233
 40
0.6118739694607211
 40
0.6118739694607211
 40
0.6118739694607211
 40
0.7255243924809621
 40
0.7255243924809621
 40
0.8204169786920354
 40
0.8204169786920354
 40
0.8204169786920354
 40
0.9064035188692495
 40
0.9064035188692495
 40
0.9064035188692495
 40
0.9925122815095403
 40
0.9925122815095403
 40
1.0
 40
1.0
 40
1.0
 40
1.0
 10
66.10777293638606
 20
124.5943761736277
 30
0.0
 10
66.1638088568479
 20
124.6344018311004
 30
0.0
 10
66.22251315447456
 20
124.6650881684962
 30
0.0
 10
66.28255164068368
 20
124.686435185815
 30
0.0
 10
66.3421689888922
 20
124.707632465178
 30
0.0
 10
66.4026286131019
 20
124.7171215232107
 30
0.0
 10
66.62010135203711
 20
124.7171215232107
 30
0.0
 10
66.74551507878503
 20
124.6664223570786
 30
0.0
 10
66.84424503388445
 20
124.5650240248143
 30
0.0
 10
66.94364184612814
 20
124.4629408122397
 30
0.0
 10
66.99233996653358
 20
124.3235358913955
 30
0.0
 10
66.99233996653358
 20
123.9926571229542
 30
0.0
 10
66.95898525197296
 20
123.8498989446347
 30
0.0
 10
66.82289801656565
 20
123.5883979824795
 30
0.0
 10
66.73083900437834
 20
123.4883338387977
 30
0.0
 10
66.61209622054257
 20
123.4189560325116
 30
0.0
 10
66.49277229555292
 20
123.3492386830794
 30
0.0
 10
66.365271332794
 20
123.3135551345
 30
0.0
 10
66.11310969071575
 20
123.3135551345
 30
0.0
 10
66.01037716986906
 20
123.3389047175661
 30
0.0
 10
65.92232072342904
 20
123.3909380722807
 30
0.0
 10
65.83327538376712
 20
123.44355577299
 30
0.0
 10
65.76755484786776
 20
123.5150176104462
 30
0.0
 10
65.72219243606534
 20
123.605742434051
 30
0.0
 10
65.67709686197938
 20
123.6959335822229
 30
0.0
 10
65.6554830069441
 20
123.7871920812608
 30
0.0
 10
65.6554830069441
 20
123.8872562249426
 30
0.0
 10
65.65681719552651
 20
123.9005981107669
 30
0.0
 10
65.65681719552651
 20
123.9192767509208
 30
0.0
  0
LINE
  5
D2
330
40
100
AcDbEntity
  8
0012875
  6
Continuous
 62
     7
100
AcDbLine
 10
65.6568171955
 20
123.9192767509
 30
0.0
 11
65.9089788376
 21
123.9432921454
 31
0.0
  0
SPLINE
  5
D3
330
40
100
AcDbEntity
  8
0012875
  6
Continuous
 62
     7
100
AcDbSpline
210
0.0
220
0.0
230
1.0
 70
     8
 71
     3
 72
    30
 73
    26
 74
     0
 42
0.0000000038954372
 43
0.0000000001
 12
1.0
 22
0.0
 32
0.0
 13
1.0
 23
0.0
 33
0.0
 40
0.0
 40
0.0
 40
0.0
 40
0.0
 40
0.0100078558181442
 40
0.0100078558181442
 40
0.1000785581814448
 40
0.1000785581814448
 40
0.1000785581814448
 40
0.173725482725622
 40
0.173725482725622
 40
0.2473724072698049
 40
0.2473724072698049
 40
0.3444524441689573
 40
0.3444524441689573
 40
0.3444524441689573
 40
0.465978971155235
 40
0.465978971155235
 40
0.465978971155235
 40
0.5777508144018177
 40
0.5777508144018177
 40
0.7044255700812782
 40
0.7044255700812782
 40
0.8311003257607282
 40
0.8311003257607282
 40
0.9155501628803644
 40
1.0
 40
1.0
 40
1.0
 40
1.0
 10
65.90897883760478
 20
123.9432921454045
 30
0.0
 10
65.90764464902234
 20
123.907269053679
 30
0.0
 10
65.90631046043993
 20
123.8859220363602
 30
0.0
 10
65.90631046043993
 20
123.819212607239
 30
0.0
 10
65.9209865348466
 20
123.7578399324475
 30
0.0
 10
65.95167287224238
 20
123.6978014462383
 30
0.0
 10
65.98289988512082
 20
123.6367051166935
 30
0.0
 10
66.0237190556933
 20
123.5897321710619
 30
0.0
 10
66.13045414228728
 20
123.5256911191055
 30
0.0
 10
66.1851558741667
 20
123.5096808561165
 30
0.0
 10
66.32124310957398
 20
123.5096808561165
 30
0.0
 10
66.39862604735463
 20
123.536364627765
 30
0.0
 10
66.47867736230009
 20
123.5883979824795
 30
0.0
 10
66.5593383240495
 20
123.6408276076166
 30
0.0
 10
66.62276972920196
 20
123.7191484635571
 30
0.0
 10
66.67213470675166
 20
123.8218809844038
 30
0.0
 10
66.72097884252675
 20
123.9235295912871
 30
0.0
 10
66.74684926736744
 20
124.0246776489324
 30
0.0
 10
66.74684926736744
 20
124.2381478221203
 30
0.0
 10
66.71349455280684
 20
124.3275384571428
 30
0.0
 10
66.58007569456437
 20
124.4636256925501
 30
0.0
 10
66.49335343670677
 20
124.4983145956931
 30
0.0
 10
66.31323797807944
 20
124.4983145956931
 30
0.0
 10
66.1744823655073
 20
124.4636256925501
 30
0.0
 10
66.05707377025391
 20
124.3595589831209
 30
0.0
 10
66.00504041553937
 20
124.2915153654173
 30
0.0
  0
LINE
  5
D4
330
40
100
AcDbEntity
  8
0012875
  6
Continuous
 62
     7
100
AcDbLine
 10
66.0050404155
 20
124.2915153654
 30
0.0
 11
65.7848992994
 21
124.3061914398
 31
0.0
  0
LINE
  5
D5
330
40
100
AcDbEntity
  8
0012875
  6
Continuous
 62
     7
100
AcDbLine
 10
65.7848992994
 20
124.3061914398
 30
0.0
 11
66.0877601076
 21
125.3308482711
 31
0.0
  0
LINE
  5
D6
330
40
100
AcDbEntity
  8
0012875
  6
Continuous
 62
     7
100
AcDbLine
 10
66.0877601076
 20
125.3308482711
 30
0.0
 11
67.0683887157
 21
125.3308482711
 31
0.0
  0
LINE
  5
D7
330
40
100
AcDbEntity
  8
0012875
  6
Continuous
 62
     7
100
AcDbLine
 10
67.0683887157
 20
125.3308482711
 30
0.0
 11
67.0216921153
 21
125.1040362121
 31
0.0
  0
LINE
  5
D8
330
40
100
AcDbEntity
  8
0012875
  6
Continuous
 62
     7
100
AcDbLine
 10
67.0216921153
 20
125.1040362121
 30
0.0
 11
66.2585362462
 21
125.1040362121
 31
0.0
  0
LINE
  5
D9
330
40
100
AcDbEntity
  8
0012875
  6
Continuous
 62
     7
100
AcDbLine
 10
65.3125965413
 20
123.5763902852
 30
0.0
 11
65.2645657523
 21
123.3495782262
 31
0.0
  0
LINE
  5
DA
330
40
100
AcDbEntity
  8
0012875
  6
Continuous
 62
     7
100
AcDbLine
 10
65.2645657523
 20
123.3495782262
 30
0.0
 11
64.0691327824
 21
123.3495782262
 31
0.0
  0
SPLINE
  5
DB
330
40
100
AcDbEntity
  8
0012875
  6
Continuous
 62
     7
100
AcDbSpline
210
0.0
220
0.0
230
1.0
 70
     8
 71
     3
 72
    32
 73
    28
 74
     0
 42
0.0000000031967805
 43
0.0000000001
 12
1.0
 22
0.0
 32
0.0
 13
1.0
 23
0.0
 33
0.0
 40
0.0
 40
0.0
 40
0.0
 40
0.0
 40
0.1030682466867575
 40
0.1030682466867575
 40
0.1030682466867575
 40
0.1976078819845592
 40
0.1976078819845592
 40
0.1976078819845592
 40
0.3804504919424649
 40
0.3804504919424649
 40
0.3804504919424649
 40
0.4935408626548234
 40
0.4935408626548234
 40
0.4935408626548234
 40
0.5769947391757572
 40
0.5769947391757572
 40
0.5769947391757572
 40
0.6273117745964769
 40
0.6273117745964769
 40
0.7119916634752478
 40
0.7119916634752478
 40
0.7119916634752478
 40
0.8079944423168357
 40
0.8079944423168357
 40
0.903997221158418
 40
0.903997221158418
 40
1.0
 40
1.0
 40
1.0
 40
1.0
 10
64.06913278244123
 20
123.3495782262255
 30
0.0
 10
64.09448236550728
 20
123.4683210100613
 30
0.0
 10
64.13050545723276
 20
123.5683851537432
 30
0.0
 10
64.17453368045275
 20
123.649770657271
 30
0.0
 10
64.21830560632347
 20
123.730682399032
 30
0.0
 10
64.2799345784643
 20
123.8058707214147
 30
0.0
 10
64.3546491390801
 20
123.8792510934481
 30
0.0
 10
64.4286967136816
 20
123.9519763899317
 30
0.0
 10
64.57345606659773
 20
124.0740426264821
 30
0.0
 10
64.78692623978566
 20
124.2448187650324
 30
0.0
 10
64.91676556768503
 20
124.3486902273519
 30
0.0
 10
65.00573316730332
 20
124.4236000350773
 30
0.0
 10
65.05242976768817
 20
124.472965012627
 30
0.0
 10
65.1204944731836
 20
124.5449191298651
 30
0.0
 10
65.17117255152397
 20
124.6143890023641
 30
0.0
 10
65.20185888891972
 20
124.6824326200677
 30
0.0
 10
65.22296677531367
 20
124.7292370638108
 30
0.0
 10
65.23387941489791
 20
124.7798283865847
 30
0.0
 10
65.23387941489791
 20
124.9265891306514
 30
0.0
 10
65.20185888891972
 20
125.0053062570145
 30
0.0
 10
65.13648364838092
 20
125.0693473089708
 30
0.0
 10
65.07044145533503
 20
125.1340417021587
 30
0.0
 10
64.99105709289663
 20
125.1667430754879
 30
0.0
 10
64.80160231419234
 20
125.1667430754879
 30
0.0
 10
64.72021681066445
 20
125.1333883609272
 30
0.0
 10
64.57879282092742
 20
125.0026378798496
 30
0.0
 10
64.52942784337772
 20
124.8985711704205
 30
0.0
 10
64.49874150598194
 20
124.7544788035186
 30
0.0
  0
LINE
  5
DC
330
40
100
AcDbEntity
  8
0012875
  6
Continuous
 62
     7
100
AcDbLine
 10
64.498741506
 20
124.7544788035
 30
0.0
 11
64.2572533726
 21
124.7891677067
 31
0.0
  0
SPLINE
  5
DD
330
40
100
AcDbEntity
  8
0012875
  6
Continuous
 62
     7
100
AcDbSpline
210
0.0
220
0.0
230
1.0
 70
     8
 71
     3
 72
    30
 73
    26
 74
     0
 42
0.0000000028012781
 43
0.0000000001
 12
1.0
 22
0.0
 32
0.0
 13
1.0
 23
0.0
 33
0.0
 40
0.0
 40
0.0
 40
0.0
 40
0.0
 40
0.1360788721846723
 40
0.1360788721846723
 40
0.1360788721846723
 40
0.2690035711212793
 40
0.2690035711212793
 40
0.3590155719759943
 40
0.3590155719759943
 40
0.3590155719759943
 40
0.4421520296706861
 40
0.4421520296706861
 40
0.4421520296706861
 40
0.5227590063348039
 40
0.5227590063348039
 40
0.6395807116451202
 40
0.6395807116451202
 40
0.6395807116451202
 40
0.8343360685929684
 40
0.8343360685929684
 40
0.8343360685929684
 40
0.9372945046978102
 40
0.9372945046978102
 40
0.9372945046978102
 40
1.0
 40
1.0
 40
1.0
 40
1.0
 10
64.25725337256308
 20
124.7891677066617
 30
0.0
 10
64.2799345784643
 20
124.9679489767066
 30
0.0
 10
64.34931238475039
 20
125.1080387778612
 30
0.0
 10
64.4640526028389
 20
125.2107712987079
 30
0.0
 10
64.57945586008636
 20
125.3140974708945
 30
0.0
 10
64.72155099924686
 20
125.3655371742691
 30
0.0
 10
65.00573316730332
 20
125.3655371742691
 30
0.0
 10
65.10846568815002
 20
125.3415217797855
 30
0.0
 10
65.20185888891972
 20
125.2948251794006
 30
0.0
 10
65.29471841425647
 20
125.2483954167323
 30
0.0
 10
65.3632957073931
 20
125.1800849613121
 30
0.0
 10
65.40999230777797
 20
125.0946968920369
 30
0.0
 10
65.45725056620167
 20
125.0082817909193
 30
0.0
 10
65.48070430264647
 20
124.9199181877393
 30
0.0
 10
65.48070430264647
 20
124.6944403173095
 30
0.0
 10
65.43267351367918
 20
124.5663582133968
 30
0.0
 10
65.33794612432705
 20
124.4436128638137
 30
0.0
 10
65.27860560496983
 20
124.3667209232382
 30
0.0
 10
65.10713149956757
 20
124.2154666162191
 30
0.0
 10
64.82294933151114
 20
123.9899887457893
 30
0.0
 10
64.7002009320448
 20
123.8925968232081
 30
0.0
 10
64.60947915832318
 20
123.8125416643269
 30
0.0
 10
64.54944067211407
 20
123.7511689895353
 30
0.0
 10
64.48938768735724
 20
123.6897814940061
 30
0.0
 10
64.44537396268497
 20
123.6297578285347
 30
0.0
 10
64.41468762528919
 20
123.5763902852377
 30
0.0
  0
LINE
  5
DE
330
40
100
AcDbEntity
  8
0012875
  6
Continuous
 62
     7
100
AcDbLine
 10
64.4146876253
 20
123.5763902852
 30
0.0
 11
65.3125965413
 21
123.5763902852
 31
0.0
  0
LINE
  5
DF
330
40
100
AcDbEntity
  8
0012875
  6
Continuous
 62
     7
100
AcDbLine
 10
63.917035284
 20
124.7864993295
 30
0.0
 11
63.6542001333
 21
124.7664865008
 31
0.0
  0
SPLINE
  5
E0
330
40
100
AcDbEntity
  8
0012875
  6
Continuous
 62
     7
100
AcDbSpline
210
0.0
220
0.0
230
1.0
 70
     8
 71
     3
 72
    51
 73
    47
 74
     0
 42
0.0000000019370622
 43
0.0000000001
 12
1.0
 22
0.0
 32
0.0
 13
1.0
 23
0.0
 33
0.0
 40
0.0
 40
0.0
 40
0.0
 40
0.0
 40
0.021567638538243
 40
0.021567638538243
 40
0.0593110059801688
 40
0.0593110059801688
 40
0.0593110059801688
 40
0.0954792894329482
 40
0.0954792894329482
 40
0.0954792894329482
 40
0.1368449708122635
 40
0.1368449708122635
 40
0.2107606965556295
 40
0.2107606965556295
 40
0.2107606965556295
 40
0.2564187340021233
 40
0.2564187340021233
 40
0.2832337718675241
 40
0.2832337718675241
 40
0.2832337718675241
 40
0.3187202206675845
 40
0.3187202206675845
 40
0.3187202206675845
 40
0.3919232479418012
 40
0.3919232479418012
 40
0.3919232479418012
 40
0.4575200365630873
 40
0.4575200365630873
 40
0.4575200365630873
 40
0.5058400090487182
 40
0.5058400090487182
 40
0.5058400090487182
 40
0.5557804750875059
 40
0.5557804750875059
 40
0.6170710470442003
 40
0.6170710470442003
 40
0.6170710470442003
 40
0.68632651474459
 40
0.68632651474459
 40
0.68632651474459
 40
0.7644282827156571
 40
0.7644282827156571
 40
0.8819265177163751
 40
0.8819265177163751
 40
0.8819265177163751
 40
1.0
 40
1.0
 40
1.0
 40
1.0
 10
63.65420013330716
 20
124.7664865007605
 30
0.0
 10
63.65420013330716
 20
124.8225224212223
 30
0.0
 10
63.65019756755988
 20
124.8678848330247
 30
0.0
 10
63.62084541874653
 20
124.9559412794648
 30
0.0
 10
63.59416164709804
 20
125.0026378798496
 30
0.0
 10
63.55547017820773
 20
125.0426635373224
 30
0.0
 10
63.51811213156522
 20
125.0813097924698
 30
0.0
 10
63.46474535460285
 20
125.1120413436085
 30
0.0
 10
63.39803592548163
 20
125.1347225495097
 30
0.0
 10
63.33091987739478
 20
125.1575420058592
 30
0.0
 10
63.25661193574461
 20
125.1707456412351
 30
0.0
 10
63.02979987673243
 20
125.1707456412351
 30
0.0
 10
62.91639384722633
 20
125.1373909266745
 30
0.0
 10
62.83634253228085
 20
125.0720156861357
 30
0.0
 10
62.7746866119879
 20
125.0216633512298
 30
0.0
 10
62.74428352009356
 20
124.9546070908823
 30
0.0
 10
62.74428352009356
 20
124.8211882326399
 30
0.0
 10
62.75629121733537
 20
124.7771600094199
 30
0.0
 10
62.78164080040145
 20
124.7384685405295
 30
0.0
 10
62.80760197906561
 20
124.6988435836211
 30
0.0
 10
62.85368698385237
 20
124.6610856027489
 30
0.0
 10
62.91906222439118
 20
124.623728322441
 30
0.0
 10
62.9667645977074
 20
124.5964698234032
 30
0.0
 10
63.07916485428214
 20
124.545011196078
 30
0.0
 10
63.25661193574461
 20
124.4662940697149
 30
0.0
 10
63.39963411576324
 20
124.402848140233
 30
0.0
 10
63.49943425774589
 20
124.3515538516264
 30
0.0
 10
63.55413598962531
 20
124.3155307599009
 30
0.0
 10
63.62706406619316
 20
124.2675049533806
 30
0.0
 10
63.68221809353806
 20
124.2074614847245
 30
0.0
 10
63.7209095624284
 20
124.1380836784385
 30
0.0
 10
63.75903348367913
 20
124.069723543782
 30
0.0
 10
63.77961386005506
 20
123.9913229343718
 30
0.0
 10
63.77961386005506
 20
123.7951972127553
 30
0.0
 10
63.74625914549445
 20
123.6937988804911
 30
0.0
 10
63.68088390495566
 20
123.6030740568862
 30
0.0
 10
63.61378703886529
 20
123.5099600386383
 30
0.0
 10
63.52211546364713
 20
123.438968861248
 30
0.0
 10
63.40604105697619
 20
123.3896038836982
 30
0.0
 10
63.28835630946531
 20
123.3395540485499
 30
0.0
 10
63.15521360348033
 20
123.3135551345
 30
0.0
 10
62.77763823465417
 20
123.3135551345
 30
0.0
 10
62.59218602169714
 20
123.3629201120498
 30
0.0
 10
62.44942784337771
 20
123.4629842557316
 30
0.0
 10
62.30640210843966
 20
123.5632359390994
 30
0.0
 10
62.23328929302492
 20
123.7404954808759
 30
0.0
 10
62.2319551044425
 20
123.9979938772839
 30
0.0
  0
LINE
  5
E1
330
40
100
AcDbEntity
  8
0012875
  6
Continuous
 62
     7
100
AcDbLine
 10
62.2319551044
 20
123.9979938773
 30
0.0
 11
62.4934560666
 21
124.0220092718
 31
0.0
  0
SPLINE
  5
E2
330
40
100
AcDbEntity
  8
0012875
  6
Continuous
 62
     7
100
AcDbSpline
210
0.0
220
0.0
230
1.0
 70
     8
 71
     3
 72
    51
 73
    47
 74
     0
 42
0.0000000019432577
 43
0.0000000001
 12
1.0
 22
0.0
 32
0.0
 13
1.0
 23
0.0
 33
0.0
 40
0.0
 40
0.0
 40
0.0
 40
0.0
 40
0.0139202833043142
 40
0.0139202833043142
 40
0.0139202833043142
 40
0.0590107205957916
 40
0.0590107205957916
 40
0.1041011578872674
 40
0.1041011578872674
 40
0.1041011578872674
 40
0.1517747527218364
 40
0.1517747527218364
 40
0.2190786513118182
 40
0.2190786513118182
 40
0.2863825499018002
 40
0.2863825499018002
 40
0.3329014209860524
 40
0.3329014209860524
 40
0.3329014209860524
 40
0.4178513912987813
 40
0.4178513912987813
 40
0.4178513912987813
 40
0.4885725091405259
 40
0.4885725091405259
 40
0.4885725091405259
 40
0.5436044003554689
 40
0.5436044003554689
 40
0.5436044003554689
 40
0.5941884394790049
 40
0.5941884394790049
 40
0.6514674249571266
 40
0.6514674249571266
 40
0.6514674249571266
 40
0.7203879745771035
 40
0.7203879745771035
 40
0.7893085241970804
 40
0.7893085241970804
 40
0.871742907075878
 40
0.871742907075878
 40
0.871742907075878
 40
0.9374423525786652
 40
0.9374423525786652
 40
0.9374423525786652
 40
0.9945602045720583
 40
0.9945602045720583
 40
1.0
 40
1.0
 40
1.0
 40
1.0
 10
62.49345606659773
 20
124.0220092717675
 30
0.0
 10
62.49256660754276
 20
123.9984386068113
 30
0.0
 10
62.49167714848783
 20
123.9748679418552
 30
0.0
 10
62.49078768943288
 20
123.951297276899
 30
0.0
 10
62.48787173088159
 20
123.8740243752901
 30
0.0
 10
62.5081321410044
 20
123.8018681556675
 30
0.0
 10
62.58017832445532
 20
123.6737860517547
 30
0.0
 10
62.63888262208201
 20
123.624421074205
 30
0.0
 10
62.72160231419232
 20
123.5897321710619
 30
0.0
 10
62.80479782754048
 20
123.5548437299805
 30
0.0
 10
62.90171777281965
 20
123.536364627765
 30
0.0
 10
63.17522643221671
 20
123.536364627765
 30
0.0
 10
63.29930597038221
 20
123.571053530908
 30
0.0
 10
63.4674137317677
 20
123.712477520645
 30
0.0
 10
63.51010776640528
 20
123.7938630241729
 30
0.0
 10
63.51010776640528
 20
123.9472947111517
 30
0.0
 10
63.48742656050408
 20
124.004664820196
 30
0.0
 10
63.44339833728404
 20
124.0566981749106
 30
0.0
 10
63.39881343537964
 20
124.1093894226158
 30
0.0
 10
63.27262219873371
 20
124.1781093359112
 30
0.0
 10
63.06849134562273
 20
124.2661657823512
 30
0.0
 10
62.91100952053226
 20
124.3340991186648
 30
0.0
 10
62.80432200630266
 20
124.3862427547695
 30
0.0
 10
62.74561770867597
 20
124.4236000350773
 30
0.0
 10
62.65540301599967
 20
124.4810093849623
 30
0.0
 10
62.58951764453229
 20
124.5476795732428
 30
0.0
 10
62.54682360989472
 20
124.6170573795289
 30
0.0
 10
62.5035340576066
 20
124.6874029019971
 30
0.0
 10
62.4814483693559
 20
124.7664865007605
 30
0.0
 10
62.4814483693559
 20
124.959943845212
 30
0.0
 10
62.51080051816923
 20
125.0533370459818
 30
0.0
 10
62.56683643863108
 20
125.1360567380921
 30
0.0
 10
62.62349187176564
 20
125.2196909489098
 30
0.0
 10
62.70559205120325
 20
125.2828174821588
 30
0.0
 10
62.92439897872089
 20
125.3708739285988
 30
0.0
 10
63.04714432830394
 20
125.3935551345
 30
0.0
 10
63.34600257076706
 20
125.3935551345
 30
0.0
 10
63.48475818333924
 20
125.3655371742691
 30
0.0
 10
63.59683002426289
 20
125.3108354423897
 30
0.0
 10
63.70942778317648
 20
125.2558770124438
 30
0.0
 10
63.79028736871447
 20
125.1814191498945
 30
0.0
 10
63.8409865348466
 20
125.0906943262897
 30
0.0
 10
63.89225385247791
 20
124.9989528105284
 30
0.0
 10
63.9170352840448
 20
124.9119130562447
 30
0.0
 10
63.9170352840448
 20
124.8198540440575
 30
0.0
 10
63.9170352840448
 20
124.8065121582332
 30
0.0
 10
63.9170352840448
 20
124.7864993294968
 30
0.0
  0
LINE
  5
E3
330
40
100
AcDbEntity
  8
0012875
  6
Continuous
 62
     7
100
AcDbLine
 10
60.13727903
 20
123.3495782262
 30
0.0
 11
60.5548800563
 21
125.3575320428
 31
0.0
  0
LINE
  5
E4
330
40
100
AcDbEntity
  8
0012875
  6
Continuous
 62
     7
100
AcDbLine
 10
60.7750211724
 20
125.1320541723
 30
0.0
 11
60.4508133469
 21
123.5763902852
 31
0.0
  0
SPLINE
  5
E5
330
40
100
AcDbEntity
  8
0012875
  6
Continuous
 62
     7
100
AcDbSpline
210
0.0
220
0.0
230
1.0
 70
     8
 71
     3
 72
    33
 73
    29
 74
     0
 42
0.0000000030773436
 43
0.0000000001
 12
1.0
 22
0.0
 32
0.0
 13
1.0
 23
0.0
 33
0.0
 40
0.0
 40
0.0
 40
0.0
 40
0.0
 40
0.098687067175297
 40
0.098687067175297
 40
0.098687067175297
 40
0.2184768563336366
 40
0.2184768563336366
 40
0.2184768563336366
 40
0.2784202651886624
 40
0.2784202651886624
 40
0.2784202651886624
 40
0.3535686568610645
 40
0.3535686568610645
 40
0.3535686568610645
 40
0.4670246171377646
 40
0.4670246171377646
 40
0.5804805774144629
 40
0.5804805774144629
 40
0.7063135515395284
 40
0.7063135515395284
 40
0.7063135515395284
 40
0.7943517716916372
 40
0.7943517716916372
 40
0.7943517716916372
 40
0.8897505886154741
 40
0.8897505886154741
 40
0.8897505886154741
 40
1.0
 40
1.0
 40
1.0
 40
1.0
 10
60.4508133469056
 20
123.5763902852377
 30
0.0
 10
60.55710370397212
 20
123.5763902852377
 30
0.0
 10
60.6633940610386
 20
123.5763902852377
 30
0.0
 10
60.76968441810511
 20
123.5763902852377
 30
0.0
 10
60.91377678500695
 20
123.5763902852377
 30
0.0
 10
61.04185888891973
 20
123.5883979824795
 30
0.0
 10
61.15393072984339
 20
123.615081754128
 30
0.0
 10
61.22319401350438
 20
123.6315730121425
 30
0.0
 10
61.28334702233857
 20
123.6551074116007
 30
0.0
 10
61.3327119998883
 20
123.6871279375789
 30
0.0
 10
61.39760981356162
 20
123.7292238167184
 30
0.0
 10
61.45679153805379
 20
123.7831895155135
 30
0.0
 10
61.51015908135079
 20
123.8512331332172
 30
0.0
 10
61.57999040377485
 20
123.9402680693079
 30
0.0
 10
61.63557280809869
 20
124.0433562890863
 30
0.0
 10
61.71829250020902
 20
124.2728367252633
 30
0.0
 10
61.73963951752781
 20
124.403587206341
 30
0.0
 10
61.73963951752781
 20
124.7131189574635
 30
0.0
 10
61.71162155729689
 20
124.8385326842114
 30
0.0
 10
61.65425144825262
 20
124.925254942069
 30
0.0
 10
61.59626740159101
 20
125.0129052451621
 30
0.0
 10
61.52483515575744
 20
125.0706814975533
 30
0.0
 10
61.43677870931741
 20
125.1000336463666
 30
0.0
 10
61.37153688763686
 20
125.1217809202601
 30
0.0
 10
61.27000513651433
 20
125.1307199837624
 30
0.0
 10
61.13124952394218
 20
125.1320541723448
 30
0.0
 10
61.01251771752931
 20
125.1331958243295
 30
0.0
 10
60.8937639562706
 20
125.1320541723448
 30
0.0
 10
60.7750211724348
 20
125.1320541723448
 30
0.0
  0
SPLINE
  5
E6
330
40
100
AcDbEntity
  8
0012875
  6
Continuous
 62
     7
100
AcDbSpline
210
0.0
220
0.0
230
1.0
 70
     8
 71
     3
 72
    37
 73
    33
 74
     0
 42
0.0000000021872698
 43
0.0000000001
 12
1.0
 22
0.0
 32
0.0
 13
1.0
 23
0.0
 33
0.0
 40
0.0
 40
0.0
 40
0.0
 40
0.0
 40
0.1332789625874584
 40
0.1332789625874584
 40
0.1332789625874584
 40
0.2072857096995324
 40
0.2072857096995324
 40
0.2072857096995324
 40
0.2783067277519796
 40
0.2783067277519796
 40
0.2783067277519796
 40
0.3501293705634422
 40
0.3501293705634422
 40
0.3501293705634422
 40
0.4322565886572695
 40
0.4322565886572695
 40
0.5306466222152209
 40
0.5306466222152209
 40
0.5306466222152209
 40
0.6188274428544835
 40
0.6188274428544835
 40
0.6188274428544835
 40
0.6945446425865484
 40
0.6945446425865484
 40
0.6945446425865484
 40
0.7678266934497303
 40
0.7678266934497303
 40
0.7678266934497303
 40
0.8409412432657454
 40
0.8409412432657454
 40
0.8409412432657454
 40
1.0
 40
1.0
 40
1.0
 40
1.0
 10
60.55488005633473
 20
125.3575320427746
 30
0.0
 10
60.7572319913358
 20
125.3575320427746
 30
0.0
 10
60.95958392633687
 20
125.3575320427746
 30
0.0
 10
61.16193586133793
 20
125.3575320427746
 30
0.0
 10
61.30736241682222
 20
125.3575320427746
 30
0.0
 10
61.41943425774591
 20
125.3468585341152
 30
0.0
 10
61.49681719552653
 20
125.3268457053788
 30
0.0
 10
61.60647716252355
 20
125.2984853690865
 30
0.0
 10
61.70094804863749
 20
125.2481285790158
 30
0.0
 10
61.77833098641812
 20
125.1747482069824
 30
0.0
 10
61.85504776962403
 20
125.1019995332527
 30
0.0
 10
61.91441822182544
 20
125.0119771999266
 30
0.0
 10
61.95444387929819
 20
124.9025737361678
 30
0.0
 10
61.99388154180279
 20
124.7947774586551
 30
0.0
 10
62.01314817692485
 20
124.6717591114083
 30
0.0
 10
62.01314817692485
 20
124.3755692461101
 30
0.0
 10
61.9891327824412
 20
124.2274743134609
 30
0.0
 10
61.9397678048915
 20
124.0953896438009
 30
0.0
 10
61.88996530426413
 20
123.9621343042844
 30
0.0
 10
61.82636177538541
 20
123.844562190305
 30
0.0
 10
61.74764464902236
 20
123.7444980466232
 30
0.0
 10
61.66827918261128
 20
123.6436097418634
 30
0.0
 10
61.58487364196655
 20
123.5643825879959
 30
0.0
 10
61.49948557269138
 20
123.5070124789516
 30
0.0
 10
61.41317827104722
 20
123.4490247606594
 30
0.0
 10
61.31003079398707
 20
123.4082825238522
 30
0.0
 10
61.19262219873371
 20
123.3802645636213
 30
0.0
 10
61.10196583685205
 20
123.3586306590813
 30
0.0
 10
60.99249391137
 20
123.3495782262255
 30
0.0
 10
60.86174343029241
 20
123.3495782262255
 30
0.0
 10
60.62025529687354
 20
123.3495782262255
 30
0.0
 10
60.37876716345467
 20
123.3495782262255
 30
0.0
 10
60.13727903003582
 20
123.3495782262255
 30
0.0
  0
SPLINE
  5
E7
330
40
100
AcDbEntity
  8
0012875
  6
Continuous
 62
     7
100
AcDbSpline
210
0.0
220
0.0
230
1.0
 70
     8
 71
     3
 72
    27
 73
    23
 74
     0
 42
0.0000000033488663
 43
0.0000000001
 12
1.0
 22
0.0
 32
0.0
 13
1.0
 23
0.0
 33
0.0
 40
0.0
 40
0.0
 40
0.0
 40
0.0
 40
0.3379250067985383
 40
0.3379250067985383
 40
0.3379250067985383
 40
0.3682196813315312
 40
0.3682196813315312
 40
0.4201534091023785
 40
0.4201534091023785
 40
0.4720871368732298
 40
0.4720871368732298
 40
0.4720871368732298
 40
0.5505950391780757
 40
0.5505950391780757
 40
0.5505950391780757
 40
0.6410999463312399
 40
0.6410999463312399
 40
0.6410999463312399
 40
0.7642962298882137
 40
0.7642962298882137
 40
0.7642962298882137
 40
1.0
 40
1.0
 40
1.0
 40
1.0
 10
56.29081334690559
 20
123.3495782262255
 30
0.0
 10
56.35885696460927
 20
123.6773438879745
 30
0.0
 10
56.42690058231292
 20
124.0051095497235
 30
0.0
 10
56.49494420001658
 20
124.3328752114725
 30
0.0
 10
56.50882715022454
 20
124.399749291886
 30
0.0
 10
56.51629121733536
 20
124.447615429561
 30
0.0
 10
56.51629121733536
 20
124.5236641787592
 30
0.0
 10
56.5016151429287
 20
124.5610214590671
 30
0.0
 10
56.44291084530202
 20
124.6197257566938
 30
0.0
 10
56.40421937641171
 20
124.6344018311004
 30
0.0
 10
56.35618858744443
 20
124.6357360196829
 30
0.0
 10
56.28690130436206
 20
124.6376606664351
 30
0.0
 10
56.21209622054255
 20
124.6117206251992
 30
0.0
 10
56.13604747134435
 20
124.5676924019792
 30
0.0
 10
56.05842094726651
 20
124.5227507301447
 30
0.0
 10
55.99595767018976
 20
124.4596231268028
 30
0.0
 10
55.94792688122248
 20
124.3795718118573
 30
0.0
 10
55.89895431207939
 20
124.2979508632855
 30
0.0
 10
55.85987043478247
 20
124.1847802788233
 30
0.0
 10
55.82784990880427
 20
124.0353511575918
 30
0.0
 10
55.7789274913697
 20
123.8070465428971
 30
0.0
 10
55.73267778992464
 20
123.5781692033476
 30
0.0
 10
55.68509173048483
 20
123.3495782262255
 30
0.0
  0
LINE
  5
E8
330
40
100
AcDbEntity
  8
0012875
  6
Continuous
 62
     7
100
AcDbLine
 10
55.6850917305
 20
123.3495782262
 30
0.0
 11
55.4382668427
 21
123.3495782262
 31
0.0
  0
LINE
  5
E9
330
40
100
AcDbEntity
  8
0012875
  6
Continuous
 62
     7
100
AcDbLine
 10
55.4382668427
 20
123.3495782262
 30
0.0
 11
55.7411276509
 21
124.8065121582
 31
0.0
  0
LINE
  5
EA
330
40
100
AcDbEntity
  8
0012875
  6
Continuous
 62
     7
100
AcDbLine
 10
55.7411276509
 20
124.8065121582
 30
0.0
 11
55.9879525387
 21
124.8065121582
 31
0.0
  0
LINE
  5
EB
330
40
100
AcDbEntity
  8
0012875
  6
Continuous
 62
     7
100
AcDbLine
 10
55.9879525387
 20
124.8065121582
 30
0.0
 11
55.9372533726
 21
124.5623556476
 31
0.0
  0
SPLINE
  5
EC
330
40
100
AcDbEntity
  8
0012875
  6
Continuous
 62
     7
100
AcDbSpline
210
0.0
220
0.0
230
1.0
 70
     8
 71
     3
 72
    16
 73
    12
 74
     0
 42
0.0000000093271666
 43
0.0000000001
 12
1.0
 22
0.0
 32
0.0
 13
1.0
 23
0.0
 33
0.0
 40
0.0
 40
0.0
 40
0.0
 40
0.0
 40
0.3122573331295903
 40
0.3122573331295903
 40
0.3122573331295903
 40
0.534872960041034
 40
0.534872960041034
 40
0.7751564938502046
 40
0.7751564938502046
 40
0.7751564938502046
 40
1.0
 40
1.0
 40
1.0
 40
1.0
 10
55.93725337256308
 20
124.5623556476495
 30
0.0
 10
56.02931238475037
 20
124.6664223570786
 30
0.0
 10
56.11203207686071
 20
124.7384685405295
 30
0.0
 10
56.18541244889405
 20
124.7784941980023
 30
0.0
 10
56.25776456093715
 20
124.8179589863894
 30
0.0
 10
56.33750994729048
 20
124.8385326842114
 30
0.0
 10
56.51228865158811
 20
124.8385326842114
 30
0.0
 10
56.58833740078631
 20
124.8145172897278
 30
0.0
 10
56.64971007557784
 20
124.7664865007605
 30
0.0
 10
56.71025533447241
 20
124.7191032546691
 30
0.0
 10
56.74977421925968
 20
124.651746282672
 30
0.0
 10
56.76978704799604
 20
124.5663582133968
 30
0.0
  0
SPLINE
  5
ED
330
40
100
AcDbEntity
  8
0012875
  6
Continuous
 62
     7
100
AcDbSpline
210
0.0
220
0.0
230
1.0
 70
     8
 71
     3
 72
    20
 73
    16
 74
     0
 42
0.0000000042649298
 43
0.0000000001
 12
1.0
 22
0.0
 32
0.0
 13
1.0
 23
0.0
 33
0.0
 40
0.0
 40
0.0
 40
0.0
 40
0.0
 40
0.1130308046446506
 40
0.1130308046446506
 40
0.2260616092892997
 40
0.2260616092892997
 40
0.3773234213872814
 40
0.3773234213872814
 40
0.3773234213872814
 40
0.5252114115650871
 40
0.5252114115650871
 40
0.5888594073378145
 40
0.5888594073378145
 40
0.5888594073378145
 40
1.0
 40
1.0
 40
1.0
 40
1.0
 10
56.76978704799604
 20
124.5663582133968
 30
0.0
 10
56.84316742002942
 20
124.6570830370016
 30
0.0
 10
56.92188454639246
 20
124.7251266547053
 30
0.0
 10
57.08465555344826
 20
124.8158514783102
 30
0.0
 10
57.17137781130585
 20
124.8385326842114
 30
0.0
 10
57.38351379591138
 20
124.8385326842114
 30
0.0
 10
57.47557280809868
 20
124.8091805353981
 30
0.0
 10
57.5356112943078
 20
124.7504762377714
 30
0.0
 10
57.59566493792316
 20
124.6917571195697
 30
0.0
 10
57.62633611791265
 20
124.6117206251992
 30
0.0
 10
57.62633611791265
 20
124.4609573153852
 30
0.0
 10
57.61699679783569
 20
124.3875769433519
 30
0.0
 10
57.5956497805169
 20
124.2848444225052
 30
0.0
 10
57.53082640725753
 20
123.9728819386945
 30
0.0
 10
57.46400984038433
 20
123.6613336249854
 30
0.0
 10
57.39818987031806
 20
123.3495782262255
 30
0.0
  0
LINE
  5
EE
330
40
100
AcDbEntity
  8
0012875
  6
Continuous
 62
     7
100
AcDbLine
 10
57.3981898703
 20
123.3495782262
 30
0.0
 11
57.150030794
 21
123.3495782262
 31
0.0
  0
SPLINE
  5
EF
330
40
100
AcDbEntity
  8
0012875
  6
Continuous
 62
     7
100
AcDbSpline
210
0.0
220
0.0
230
1.0
 70
     8
 71
     3
 72
    27
 73
    23
 74
     0
 42
0.0000000033297256
 43
0.0000000001
 12
1.0
 22
0.0
 32
0.0
 13
1.0
 23
0.0
 33
0.0
 40
0.0
 40
0.0
 40
0.0
 40
0.0
 40
0.3291852717410325
 40
0.3291852717410325
 40
0.3291852717410325
 40
0.369833675813411
 40
0.369833675813411
 40
0.4283673776776371
 40
0.4283673776776371
 40
0.4283673776776371
 40
0.4743836868896336
 40
0.4743836868896336
 40
0.4743836868896336
 40
0.5546028510964042
 40
0.5546028510964042
 40
0.5546028510964042
 40
0.6569205378769023
 40
0.6569205378769023
 40
0.759238224657399
 40
0.759238224657399
 40
0.759238224657399
 40
1.0
 40
1.0
 40
1.0
 40
1.0
 10
57.15003079398709
 20
123.3495782262255
 30
0.0
 10
57.2167402231083
 20
123.6706729450624
 30
0.0
 10
57.28344965222954
 20
123.9917676638992
 30
0.0
 10
57.35015908135077
 20
124.3128623827361
 30
0.0
 10
57.36655403770381
 20
124.3917767726487
 30
0.0
 10
57.37684285299927
 20
124.447615429561
 30
0.0
 10
57.37684285299927
 20
124.5290009330889
 30
0.0
 10
57.36216677859259
 20
124.5663582133968
 30
0.0
 10
57.33148044119682
 20
124.5943761736277
 30
0.0
 10
57.30145844718797
 20
124.6217875594619
 30
0.0
 10
57.25810006916348
 20
124.6344018311004
 30
0.0
 10
57.20339833728405
 20
124.6357360196829
 30
0.0
 10
57.1287607185782
 20
124.6375564494074
 30
0.0
 10
57.05396921605251
 20
124.6117206251992
 30
0.0
 10
56.97658627827187
 20
124.5676924019792
 30
0.0
 10
56.89862987609717
 20
124.5233378972936
 30
0.0
 10
56.83916485428213
 20
124.4636256925501
 30
0.0
 10
56.75377678500696
 20
124.3168649484834
 30
0.0
 10
56.71641950469905
 20
124.2047931075597
 30
0.0
 10
56.68439897872088
 20
124.0540297977457
 30
0.0
 10
56.63456741007981
 20
123.8194061620607
 30
0.0
 10
56.58655848267639
 20
123.5843954167322
 30
0.0
 10
56.53763823465416
 20
123.3495782262255
 30
0.0
  0
LINE
  5
F0
330
40
100
AcDbEntity
  8
0012875
  6
Continuous
 62
     7
100
AcDbLine
 10
56.5376382347
 20
123.3495782262
 30
0.0
 11
56.2908133469
 21
123.3495782262
 31
0.0
  0
SPLINE
  5
F1
330
40
100
AcDbEntity
  8
0012875
  6
Continuous
 62
     7
100
AcDbSpline
210
0.0
220
0.0
230
1.0
 70
     8
 71
     3
 72
    18
 73
    14
 74
     0
 42
0.0000000073502454
 43
0.0000000001
 12
1.0
 22
0.0
 32
0.0
 13
1.0
 23
0.0
 33
0.0
 40
0.0
 40
0.0
 40
0.0
 40
0.0
 40
0.021681309424402
 40
0.021681309424402
 40
0.2710163678050181
 40
0.2710163678050181
 40
0.2710163678050181
 40
0.4831047770934324
 40
0.4831047770934324
 40
0.7095234843067311
 40
0.7095234843067311
 40
0.7095234843067311
 40
1.0
 40
1.0
 40
1.0
 40
1.0
 10
55.04201283375616
 20
124.208795673307
 30
0.0
 10
55.04334702233857
 20
124.234145256373
 30
0.0
 10
55.04334702233857
 20
124.252823896527
 30
0.0
 10
55.04334702233857
 20
124.3862427547695
 30
0.0
 10
55.01266068494282
 20
124.482304332704
 30
0.0
 10
54.94995382156886
 20
124.5476795732428
 30
0.0
 10
54.88788626894947
 20
124.6123882983141
 30
0.0
 10
54.80852983183186
 20
124.6464095283422
 30
0.0
 10
54.60439897872089
 20
124.6464095283422
 30
0.0
 10
54.50700321220389
 20
124.6103864366168
 30
0.0
 10
54.41894676576383
 20
124.5370060645834
 30
0.0
 10
54.33233386762612
 20
124.4648286494687
 30
0.0
 10
54.26684926736744
 20
124.3555564173737
 30
0.0
 10
54.22415523272986
 20
124.208795673307
 30
0.0
  0
LINE
  5
F2
330
40
100
AcDbEntity
  8
0012875
  6
Continuous
 62
     7
100
AcDbLine
 10
55.2594855727
 20
124.018006706
 30
0.0
 11
54.1841295753
 21
124.018006706
 31
0.0
  0
SPLINE
  5
F3
330
40
100
AcDbEntity
  8
0012875
  6
Continuous
 62
     7
100
AcDbSpline
210
0.0
220
0.0
230
1.0
 70
     8
 71
     3
 72
    17
 73
    13
 74
     0
 42
0.0000000078397093
 43
0.0000000001
 12
1.0
 22
0.0
 32
0.0
 13
1.0
 23
0.0
 33
0.0
 40
0.0
 40
0.0
 40
0.0
 40
0.0
 40
0.0413881499234958
 40
0.0413881499234958
 40
0.289717049464475
 40
0.289717049464475
 40
0.5380459490054541
 40
0.5380459490054541
 40
0.5380459490054541
 40
0.769022974502731
 40
0.769022974502731
 40
1.0
 40
1.0
 40
1.0
 40
1.0
 10
54.18412957525713
 20
124.0180067060202
 30
0.0
 10
54.18146119809226
 20
123.9886545572069
 30
0.0
 10
54.18012700950985
 20
123.9633049741408
 30
0.0
 10
54.18012700950985
 20
123.8045365328323
 30
0.0
 10
54.21081334690562
 20
123.7004698234032
 30
0.0
 10
54.33622707365353
 20
123.5563774565013
 30
0.0
 10
54.41361001143414
 20
123.5203543647759
 30
0.0
 10
54.50433483503902
 20
123.5216885533583
 30
0.0
 10
54.58968482585089
 20
123.522943700282
 30
0.0
 10
54.67244259642454
 20
123.5483723250068
 30
0.0
 10
54.83788198064518
 20
123.6577757887656
 30
0.0
 10
54.90192303260158
 20
123.7378271037111
 30
0.0
 10
54.94728544440401
 20
123.8418938131402
 30
0.0
  0
LINE
  5
F4
330
40
100
AcDbEntity
  8
0012875
  6
Continuous
 62
     7
100
AcDbLine
 10
54.9472854444
 20
123.8418938131
 30
0.0
 11
55.1887735778
 21
123.8178784187
 31
0.0
  0
SPLINE
  5
F5
330
40
100
AcDbEntity
  8
0012875
  6
Continuous
 62
     7
100
AcDbSpline
210
0.0
220
0.0
230
1.0
 70
     8
 71
     3
 72
    34
 73
    30
 74
     0
 42
0.0000000022698704
 43
0.0000000001
 12
1.0
 22
0.0
 32
0.0
 13
1.0
 23
0.0
 33
0.0
 40
0.0
 40
0.0
 40
0.0
 40
0.0
 40
0.0971041639436981
 40
0.0971041639436981
 40
0.0971041639436981
 40
0.2099423133125268
 40
0.2099423133125268
 40
0.2802491602269507
 40
0.2802491602269507
 40
0.2802491602269507
 40
0.3503317846186258
 40
0.3503317846186258
 40
0.3503317846186258
 40
0.4317482831038177
 40
0.4317482831038177
 40
0.5382160118921456
 40
0.5382160118921456
 40
0.5382160118921456
 40
0.6404936102112896
 40
0.6404936102112896
 40
0.6404936102112896
 40
0.7273285918861374
 40
0.7273285918861374
 40
0.8388519507038368
 40
0.8388519507038368
 40
0.8388519507038368
 40
0.9549119447565139
 40
0.9549119447565139
 40
1.0
 40
1.0
 40
1.0
 40
1.0
 10
55.18877357782286
 20
123.8178784186565
 30
0.0
 10
55.15408467467983
 20
123.6991356348208
 30
0.0
 10
55.07403335973435
 20
123.5857296053147
 30
0.0
 10
54.94861963298644
 20
123.4789945187207
 30
0.0
 10
54.82332114594543
 20
123.372357508473
 30
0.0
 10
54.67644516217181
 20
123.3175577002473
 30
0.0
 10
54.39493137128022
 20
123.3175577002473
 30
0.0
 10
54.29620141618079
 20
123.3429072833134
 30
0.0
 10
54.20547659257593
 20
123.3922722608631
 30
0.0
 10
54.1157811846235
 20
123.4410771151901
 30
0.0
 10
54.04804233984981
 20
123.5136834218637
 30
0.0
 10
54.00001155088252
 20
123.6097449997983
 30
0.0
 10
53.95278127506472
 20
123.704205551434
 30
0.0
 10
53.92929955601403
 20
123.8125416643269
 30
0.0
 10
53.92929955601403
 20
124.092721266636
 30
0.0
 10
53.96665683632189
 20
124.2474871421973
 30
0.0
 10
54.04003720835527
 20
124.3969162634288
 30
0.0
 10
54.11288969795122
 20
124.5452704240606
 30
0.0
 10
54.20947915832319
 20
124.6557488484192
 30
0.0
 10
54.32555356499413
 20
124.7291292204526
 30
0.0
 10
54.44197858342773
 20
124.8027312436002
 30
0.0
 10
54.56971007557783
 20
124.8385326842114
 30
0.0
 10
54.88057601528278
 20
124.8385326842114
 30
0.0
 10
55.01933162785495
 20
124.783830952332
 30
0.0
 10
55.12206414870165
 20
124.677095865738
 30
0.0
 10
55.22610488641693
 20
124.5690015927871
 30
0.0
 10
55.27816421284533
 20
124.4222658464949
 30
0.0
 10
55.27816421284533
 20
124.164767450087
 30
0.0
 10
55.27149326993319
 20
124.0913870780536
 30
0.0
 10
55.25948557269137
 20
124.0180067060202
 30
0.0
  0
LINE
  5
F6
330
40
100
AcDbEntity
  8
0012875
  6
Continuous
 62
     7
100
AcDbLine
 10
54.2241552327
 20
124.2087956733
 30
0.0
 11
55.0420128338
 21
124.2087956733
 31
0.0
  0
LINE
  5
F7
330
40
100
AcDbEntity
  8
0012875
  6
Continuous
 62
     7
100
AcDbLine
 10
53.0113778113
 20
124.3769034347
 30
0.0
 11
52.7645529236
 21
124.3608931717
 31
0.0
  0
SPLINE
  5
F8
330
40
100
AcDbEntity
  8
0012875
  6
Continuous
 62
     7
100
AcDbSpline
210
0.0
220
0.0
230
1.0
 70
     8
 71
     3
 72
    38
 73
    34
 74
     0
 42
0.0000000026562759
 43
0.0000000001
 12
1.0
 22
0.0
 32
0.0
 13
1.0
 23
0.0
 33
0.0
 40
0.0
 40
0.0
 40
0.0
 40
0.0
 40
0.0637829389361784
 40
0.0637829389361784
 40
0.0637829389361784
 40
0.1346526294780085
 40
0.1346526294780085
 40
0.1929631343541977
 40
0.1929631343541977
 40
0.1929631343541977
 40
0.2323447494221138
 40
0.2323447494221138
 40
0.2717263644900311
 40
0.2717263644900311
 40
0.2717263644900311
 40
0.3365437187236586
 40
0.3365437187236586
 40
0.3365437187236586
 40
0.4477445621872881
 40
0.4477445621872881
 40
0.4477445621872881
 40
0.5405398669022407
 40
0.5405398669022407
 40
0.6024034033788759
 40
0.6024034033788759
 40
0.6642669398555118
 40
0.6642669398555118
 40
0.6642669398555118
 40
0.755296603393231
 40
0.755296603393231
 40
0.8776483016966153
 40
0.8776483016966153
 40
1.0
 40
1.0
 40
1.0
 40
1.0
 10
52.7645529235573
 20
124.3608931717034
 30
0.0
 10
52.76188454639248
 20
124.4489496181434
 30
0.0
 10
52.72986402041428
 20
124.5183274244295
 30
0.0
 10
52.67249391137
 20
124.570360779144
 30
0.0
 10
52.61505570724083
 20
124.622455894517
 30
0.0
 10
52.53106992163301
 20
124.6464095283422
 30
0.0
 10
52.33894676576386
 20
124.6464095283422
 30
0.0
 10
52.27357152522505
 20
124.6263966996059
 30
0.0
 10
52.22554073625776
 20
124.5877052307156
 30
0.0
 10
52.17766727790478
 20
124.5491405003757
 30
0.0
 10
52.15482874138925
 20
124.5049855386052
 30
0.0
 10
52.15482874138925
 20
124.4142607150004
 30
0.0
 10
52.17617575870806
 20
124.3742350575276
 30
0.0
 10
52.2162014161808
 20
124.3395461543846
 30
0.0
 10
52.24408731205962
 20
124.3153783779563
 30
0.0
 10
52.31493137128021
 20
124.2781734795931
 30
0.0
 10
52.4283374007863
 20
124.2301426906258
 30
0.0
 10
52.61916191094456
 20
124.1493228980882
 30
0.0
 10
52.73653496332639
 20
124.0820477579766
 30
0.0
 10
52.78723412945855
 20
124.0340169690093
 30
0.0
 10
52.86668749419261
 20
123.9587453603139
 30
0.0
 10
52.90597691329432
 20
123.8659092076238
 30
0.0
 10
52.90597691329432
 20
123.6857937489965
 30
0.0
 10
52.8832957073931
 20
123.615081754128
 30
0.0
 10
52.79523926095309
 20
123.4763261415558
 30
0.0
 10
52.72719564324942
 20
123.4216244096764
 30
0.0
 10
52.63780500822698
 20
123.3802645636213
 30
0.0
 10
52.54731544246205
 20
123.3383962570733
 30
0.0
 10
52.44034509802812
 20
123.3175577002473
 30
0.0
 10
52.14949198705956
 20
123.3175577002473
 30
0.0
 10
52.00673380874013
 20
123.3589175463025
 30
0.0
 10
51.7719166182334
 20
123.5243569305231
 30
0.0
 10
51.71588069777155
 20
123.659109977348
 30
0.0
 10
51.72121745210126
 20
123.8458963788875
 30
0.0
  0
LINE
  5
F9
330
40
100
AcDbEntity
  8
0012875
  6
Continuous
 62
     7
100
AcDbLine
 10
51.7212174521
 20
123.8458963789
 30
0.0
 11
51.9720449056
 21
123.8605724533
 31
0.0
  0
SPLINE
  5
FA
330
40
100
AcDbEntity
  8
0012875
  6
Continuous
 62
     7
100
AcDbSpline
210
0.0
220
0.0
230
1.0
 70
     8
 71
     3
 72
    41
 73
    37
 74
     0
 42
0.000000002685212
 43
0.0000000001
 12
1.0
 22
0.0
 32
0.0
 13
1.0
 23
0.0
 33
0.0
 40
0.0
 40
0.0
 40
0.0
 40
0.0
 40
0.0507161692857751
 40
0.0507161692857751
 40
0.0507161692857751
 40
0.1030511479805811
 40
0.1030511479805811
 40
0.1553861266753851
 40
0.1553861266753851
 40
0.2272358431885903
 40
0.2272358431885903
 40
0.2272358431885903
 40
0.2769645081253547
 40
0.2769645081253547
 40
0.3131308098975469
 40
0.3131308098975469
 40
0.3131308098975469
 40
0.3915194288406554
 40
0.3915194288406554
 40
0.3915194288406554
 40
0.4674355675235907
 40
0.4674355675235907
 40
0.4674355675235907
 40
0.5193141120191225
 40
0.5193141120191225
 40
0.5711926565146559
 40
0.5711926565146559
 40
0.6622447958333469
 40
0.6622447958333469
 40
0.6622447958333469
 40
0.7738226346552763
 40
0.7738226346552763
 40
0.8970981501278948
 40
0.8970981501278948
 40
0.8970981501278948
 40
1.0
 40
1.0
 40
1.0
 40
1.0
 10
51.97204490559708
 20
123.8605724532941
 30
0.0
 10
51.97204490559708
 20
123.7898604584256
 30
0.0
 10
51.98271841425647
 20
123.7298219722165
 30
0.0
 10
52.00406543157528
 20
123.6791228060844
 30
0.0
 10
52.02493528027166
 20
123.6295569154305
 30
0.0
 10
52.06543810636681
 20
123.5883979824795
 30
0.0
 10
52.18284670162019
 20
123.5243569305231
 30
0.0
 10
52.25089031932381
 20
123.5096808561165
 30
0.0
 10
52.43767672086327
 20
123.5096808561165
 30
0.0
 10
52.51906222439118
 20
123.5310278734352
 30
0.0
 10
52.5737639562706
 20
123.5750560966553
 30
0.0
 10
52.62781400686769
 20
123.6185597959164
 30
0.0
 10
52.6551494597985
 20
123.6697834860074
 30
0.0
 10
52.6551494597985
 20
123.7711818182717
 30
0.0
 10
52.6391391968094
 20
123.8125416643269
 30
0.0
 10
52.6057844822488
 20
123.8498989446347
 30
0.0
 10
52.57176693446766
 20
123.8879985981496
 30
0.0
 10
52.48971007557786
 20
123.9352870139099
 30
0.0
 10
52.35895959450023
 20
123.9926571229542
 30
0.0
 10
52.22870001281024
 20
124.0498118373692
 30
0.0
 10
52.14548942131229
 20
124.0887187008887
 30
0.0
 10
52.1081321410044
 20
124.11139990679
 30
0.0
 10
52.04769203045967
 20
124.1480956881921
 30
0.0
 10
52.00139705441043
 20
124.1927854103179
 30
0.0
 10
51.94002437961889
 20
124.2941837425821
 30
0.0
 10
51.92401411662981
 20
124.3528880402088
 30
0.0
 10
51.92401411662981
 20
124.5330034988362
 30
0.0
 10
51.97071071701465
 20
124.6317334539356
 30
0.0
 10
52.06143554061953
 20
124.7144531460459
 30
0.0
 10
52.1528889055571
 20
124.7978370964301
 30
0.0
 10
52.28024246813719
 20
124.8385326842114
 30
0.0
 10
52.62846568815001
 20
124.8385326842114
 30
0.0
 10
52.76722130072217
 20
124.7958386495738
 30
0.0
 10
52.86194869007429
 20
124.7104505802986
 30
0.0
 10
52.95674865157547
 20
124.6249970938751
 30
0.0
 10
53.00737524555858
 20
124.5143248586822
 30
0.0
 10
53.01137781130587
 20
124.3769034346925
 30
0.0
  0
LINE
  5
FB
330
40
100
AcDbEntity
  8
0012875
  6
Continuous
 62
     7
100
AcDbLine
 10
51.5144182218
 20
124.8065121582
 30
0.0
 11
51.7732508068
 21
124.8065121582
 31
0.0
  0
SPLINE
  5
FC
330
40
100
AcDbEntity
  8
0012875
  6
Continuous
 62
     7
100
AcDbSpline
210
0.0
220
0.0
230
1.0
 70
     8
 71
     3
 72
    15
 73
    11
 74
     0
 42
0.000000003663139
 43
0.0000000001
 12
1.0
 22
0.0
 32
0.0
 13
1.0
 23
0.0
 33
0.0
 40
0.0
 40
0.0
 40
0.0
 40
0.0
 40
0.6944103924140682
 40
0.6944103924140682
 40
0.6944103924140682
 40
0.8100855546076127
 40
0.8100855546076127
 40
0.9257607168011571
 40
0.9257607168011571
 40
1.0
 40
1.0
 40
1.0
 40
1.0
 10
51.77325080681583
 20
124.8065121582332
 30
0.0
 10
51.46460851474825
 20
124.2572711918017
 30
0.0
 10
51.15596622268068
 20
123.7080302253703
 30
0.0
 10
50.84732393061311
 20
123.1587892589388
 30
0.0
 10
50.75692423146354
 20
122.9979194773109
 30
0.0
 10
50.6778819806452
 20
122.889283165289
 30
0.0
 10
50.53912636807303
 20
122.7852164558599
 30
0.0
 10
50.45907505312756
 20
122.7585326842114
 30
0.0
 10
50.31231430906085
 20
122.7585326842114
 30
0.0
 10
50.2549442000166
 20
122.7678720042884
 30
0.0
 10
50.20024246813718
 20
122.7878848330247
 30
0.0
  0
LINE
  5
FD
330
40
100
AcDbEntity
  8
0012875
  6
Continuous
 62
     7
100
AcDbLine
 10
50.2002424681
 20
122.787884833
 30
0.0
 11
50.2162527311
 21
123.0227020235
 31
0.0
  0
SPLINE
  5
FE
330
40
100
AcDbEntity
  8
0012875
  6
Continuous
 62
     7
100
AcDbSpline
210
0.0
220
0.0
230
1.0
 70
     8
 71
     3
 72
    16
 73
    12
 74
     0
 42
0.0000000150781521
 43
0.0000000001
 12
1.0
 22
0.0
 32
0.0
 13
1.0
 23
0.0
 33
0.0
 40
0.0
 40
0.0
 40
0.0
 40
0.0
 40
0.209593350378497
 40
0.209593350378497
 40
0.4250087382675023
 40
0.4250087382675023
 40
0.4250087382675023
 40
0.7516385063522175
 40
0.7516385063522175
 40
0.7516385063522175
 40
1.0
 40
1.0
 40
1.0
 40
1.0
 10
50.21625273112626
 20
123.0227020235315
 30
0.0
 10
50.26695189725841
 20
123.0080259491248
 30
0.0
 10
50.31765106339055
 20
123.0013550062127
 30
0.0
 10
50.41504682990754
 20
123.0013550062127
 30
0.0
 10
50.4564066759627
 20
123.0120285148721
 30
0.0
 10
50.48709301335847
 20
123.0360439093557
 30
0.0
 10
50.52616143353643
 20
123.0666191947124
 30
0.0
 10
50.57114689405122
 20
123.1227661672133
 30
0.0
 10
50.6178434944361
 20
123.2054858593236
 30
0.0
 10
50.644663255583
 20
123.2529951504982
 30
0.0
 10
50.67121103773306
 20
123.3006579782033
 30
0.0
 10
50.69789480938155
 20
123.3482440376431
 30
0.0
  0
LINE
  5
FF
330
40
100
AcDbEntity
  8
0012875
  6
Continuous
 62
     7
100
AcDbLine
 10
50.6978948094
 20
123.3482440376
 30
0.0
 11
50.4550724874
 21
124.8065121582
 31
0.0
  0
LINE
  5
100
330
40
100
AcDbEntity
  8
0012875
  6
Continuous
 62
     7
100
AcDbLine
 10
50.4550724874
 20
124.8065121582
 30
0.0
 11
50.6965606208
 21
124.8065121582
 31
0.0
  0
SPLINE
  5
101
330
40
100
AcDbEntity
  8
0012875
  6
Continuous
 62
     7
100
AcDbSpline
210
0.0
220
0.0
230
1.0
 70
     8
 71
     3
 72
    11
 73
     7
 74
     0
 42
0.0000000084505494
 43
0.0000000001
 12
1.0
 22
0.0
 32
0.0
 13
1.0
 23
0.0
 33
0.0
 40
0.0
 40
0.0
 40
0.0
 40
0.0
 40
0.6282567672362598
 40
0.6282567672362598
 40
0.6282567672362598
 40
1.0
 40
1.0
 40
1.0
 40
1.0
 10
50.69656062079912
 20
124.8065121582332
 30
0.0
 10
50.73347317157954
 20
124.5614661885946
 30
0.0
 10
50.77038572235996
 20
124.3164202189559
 30
0.0
 10
50.80729827314038
 20
124.0713742493172
 30
0.0
 10
50.82919222226683
 20
123.9260300810199
 30
0.0
 10
50.84732393061311
 20
123.7805211383487
 30
0.0
 10
50.8633341936022
 20
123.6350945828644
 30
0.0
  0
LINE
  5
102
330
40
100
AcDbEntity
  8
0012875
  6
Continuous
 62
     7
100
AcDbLine
 10
50.8633341936
 20
123.6350945829
 30
0.0
 11
51.5144182218
 21
124.8065121582
 31
0.0
  0
LINE
  5
103
330
40
100
AcDbEntity
  8
0012875
  6
Continuous
 62
     7
100
AcDbLine
 10
50.2122501654
 20
124.7864993295
 30
0.0
 11
49.9507492032
 21
124.7664865008
 31
0.0
  0
SPLINE
  5
104
330
40
100
AcDbEntity
  8
0012875
  6
Continuous
 62
     7
100
AcDbSpline
210
0.0
220
0.0
230
1.0
 70
     8
 71
     3
 72
    52
 73
    48
 74
     0
 42
0.0000000019360809
 43
0.0000000001
 12
1.0
 22
0.0
 32
0.0
 13
1.0
 23
0.0
 33
0.0
 40
0.0
 40
0.0
 40
0.0
 40
0.0
 40
0.0264433110871848
 40
0.0264433110871848
 40
0.0264433110871848
 40
0.0592893318230163
 40
0.0592893318230163
 40
0.0592893318230163
 40
0.0954649509175291
 40
0.0954649509175291
 40
0.0954649509175291
 40
0.1375755765023403
 40
0.1375755765023403
 40
0.2109295694565281
 40
0.2109295694565281
 40
0.2109295694565281
 40
0.2566304236944026
 40
0.2566304236944026
 40
0.2834706079293463
 40
0.2834706079293463
 40
0.2834706079293463
 40
0.3189590920973951
 40
0.3189590920973951
 40
0.3189590920973951
 40
0.3918908840021619
 40
0.3918908840021619
 40
0.3918908840021619
 40
0.4574597730848553
 40
0.4574597730848553
 40
0.4574597730848553
 40
0.5059181728425454
 40
0.5059181728425454
 40
0.5059181728425454
 40
0.5559035550512078
 40
0.5559035550512078
 40
0.6172492513982039
 40
0.6172492513982039
 40
0.6172492513982039
 40
0.6864613307814719
 40
0.6864613307814719
 40
0.6864613307814719
 40
0.7645155415926762
 40
0.7645155415926762
 40
0.881942230423691
 40
0.881942230423691
 40
0.881942230423691
 40
1.0
 40
1.0
 40
1.0
 40
1.0
 10
49.95074920322376
 20
124.7664865007605
 30
0.0
 10
49.95074920322376
 20
124.8225224212223
 30
0.0
 10
49.94541244889405
 20
124.8678848330247
 30
0.0
 10
49.93607312881709
 20
124.8999053590029
 30
0.0
 10
49.91954626800887
 20
124.9565688817739
 30
0.0
 10
49.88937652843224
 20
125.0026378798496
 30
0.0
 10
49.85201924812435
 20
125.0426635373224
 30
0.0
 10
49.81537184487691
 20
125.0819286122303
 30
0.0
 10
49.76129442451946
 20
125.1120413436085
 30
0.0
 10
49.69458499539825
 20
125.1347225495097
 30
0.0
 10
49.62746894731141
 20
125.1575420058592
 30
0.0
 10
49.55316100566123
 20
125.1707456412351
 30
0.0
 10
49.32634894664904
 20
125.1707456412351
 30
0.0
 10
49.21294291714293
 20
125.1373909266745
 30
0.0
 10
49.13155741361503
 20
125.0720156861357
 30
0.0
 10
49.06950129952352
 20
125.0221673321933
 30
0.0
 10
49.03949840142774
 20
124.9546070908823
 30
0.0
 10
49.03949840142774
 20
124.8211882326399
 30
0.0
 10
49.05284028725199
 20
124.7771600094199
 30
0.0
 10
49.07818987031805
 20
124.7384685405295
 30
0.0
 10
49.10415104898222
 20
124.6988435836211
 30
0.0
 10
49.14890186518657
 20
124.6610856027489
 30
0.0
 10
49.21561129430781
 20
124.623728322441
 30
0.0
 10
49.26253540553498
 20
124.5974508201538
 30
0.0
 10
49.37437973561632
 20
124.545011196078
 30
0.0
 10
49.55182681707878
 20
124.4662940697149
 30
0.0
 10
49.69596380398618
 20
124.4023536018387
 30
0.0
 10
49.79464913908008
 20
124.3515538516264
 30
0.0
 10
49.8493508709595
 20
124.3155307599009
 30
0.0
 10
49.92320955790372
 20
124.2668921124011
 30
0.0
 10
49.97743297487226
 20
124.2074614847245
 30
0.0
 10
50.01745863234501
 20
124.1380836784385
 30
0.0
 10
50.05657360615716
 20
124.0702843904974
 30
0.0
 10
50.07616292997167
 20
123.9913229343718
 30
0.0
 10
50.07616292997167
 20
123.7951972127553
 30
0.0
 10
50.04280821541107
 20
123.6937988804911
 30
0.0
 10
49.97609878628984
 20
123.6030740568862
 30
0.0
 10
49.90858404963009
 20
123.5112540150289
 30
0.0
 10
49.81866453356373
 20
123.438968861248
 30
0.0
 10
49.70125593831036
 20
123.3896038836982
 30
0.0
 10
49.5845044086071
 20
123.3405151723457
 30
0.0
 10
49.45176267339697
 20
123.3135551345
 30
0.0
 10
49.07418730457078
 20
123.3135551345
 30
0.0
 10
48.88873509161376
 20
123.3629201120498
 30
0.0
 10
48.74464272471191
 20
123.4629842557316
 30
0.0
 10
48.60117543314797
 20
123.5626143193177
 30
0.0
 10
48.52850417435913
 20
123.7404954808759
 30
0.0
 10
48.52716998577669
 20
123.9979938772839
 30
0.0
  0
LINE
  5
105
330
40
100
AcDbEntity
  8
0012875
  6
Continuous
 62
     7
100
AcDbLine
 10
48.5271699858
 20
123.9979938773
 30
0.0
 11
48.7900051365
 21
124.0220092718
 31
0.0
  0
SPLINE
  5
106
330
40
100
AcDbEntity
  8
0012875
  6
Continuous
 62
     7
100
AcDbSpline
210
0.0
220
0.0
230
1.0
 70
     8
 71
     3
 72
    53
 73
    49
 74
     0
 42
0.0000000019443841
 43
0.0000000001
 12
1.0
 22
0.0
 32
0.0
 13
1.0
 23
0.0
 33
0.0
 40
0.0
 40
0.0
 40
0.0
 40
0.0
 40
0.0139279295162094
 40
0.0139279295162094
 40
0.0139279295162094
 40
0.0577976464619988
 40
0.0577976464619988
 40
0.0577976464619988
 40
0.103929277082425
 40
0.103929277082425
 40
0.103929277082425
 40
0.1600699665979061
 40
0.1600699665979061
 40
0.2399878893199438
 40
0.2399878893199438
 40
0.2399878893199438
 40
0.3145741291728388
 40
0.3145741291728388
 40
0.3661263831888102
 40
0.3661263831888102
 40
0.4176786372047809
 40
0.4176786372047809
 40
0.4176786372047809
 40
0.4884441251585013
 40
0.4884441251585013
 40
0.4884441251585013
 40
0.5436731416407822
 40
0.5436731416407822
 40
0.5436731416407822
 40
0.5942702858438731
 40
0.5942702858438731
 40
0.6515641108973732
 40
0.6515641108973732
 40
0.6515641108973732
 40
0.7140850984472994
 40
0.7140850984472994
 40
0.7140850984472994
 40
0.7862250893864359
 40
0.7862250893864359
 40
0.8716724572949268
 40
0.8716724572949268
 40
0.8716724572949268
 40
0.9374079905604934
 40
0.9374079905604934
 40
0.9374079905604934
 40
0.9945572165704774
 40
0.9945572165704774
 40
1.0
 40
1.0
 40
1.0
 40
1.0
 10
48.79000513651435
 20
124.0220092717675
 30
0.0
 10
48.7891156774594
 20
123.9984386068113
 30
0.0
 10
48.78822621840444
 20
123.9748679418552
 30
0.0
 10
48.78733675934947
 20
123.951297276899
 30
0.0
 10
48.78442080079822
 20
123.8740243752901
 30
0.0
 10
48.804681210921
 20
123.8018681556675
 30
0.0
 10
48.84070430264646
 20
123.7378271037111
 30
0.0
 10
48.87640671403018
 20
123.6743561501401
 30
0.0
 10
48.93543169199862
 20
123.624421074205
 30
0.0
 10
49.01681719552653
 20
123.5897321710619
 30
0.0
 10
49.09981301035918
 20
123.5543569057234
 30
0.0
 10
49.19693265415384
 20
123.536364627765
 30
0.0
 10
49.47177550213333
 20
123.536364627765
 30
0.0
 10
49.59452085171638
 20
123.571053530908
 30
0.0
 10
49.67857473240915
 20
123.6417655257765
 30
0.0
 10
49.76340987519745
 20
123.7131347728841
 30
0.0
 10
49.80532264773947
 20
123.7938630241729
 30
0.0
 10
49.80532264773947
 20
123.9472947111517
 30
0.0
 10
49.78397563042067
 20
124.004664820196
 30
0.0
 10
49.69325080681582
 20
124.1087315296251
 30
0.0
 10
49.56917126865032
 20
124.1781093359112
 30
0.0
 10
49.36504041553935
 20
124.2661657823512
 30
0.0
 10
49.20755859044887
 20
124.3340991186648
 30
0.0
 10
49.09953688763684
 20
124.3862427547695
 30
0.0
 10
49.04216677859259
 20
124.4236000350773
 30
0.0
 10
48.95161221224701
 20
124.4825657992094
 30
0.0
 10
48.88473252586649
 20
124.5476795732428
 30
0.0
 10
48.8420384912289
 20
124.6170573795289
 30
0.0
 10
48.79874893894079
 20
124.6874029019971
 30
0.0
 10
48.77799743927251
 20
124.7664865007605
 30
0.0
 10
48.77799743927251
 20
124.959943845212
 30
0.0
 10
48.80601539950344
 20
125.0533370459818
 30
0.0
 10
48.8633855085477
 20
125.1360567380921
 30
0.0
 10
48.92094708642594
 20
125.2190525015444
 30
0.0
 10
49.00214112111985
 20
125.2828174821588
 30
0.0
 10
49.11154458487868
 20
125.3268457053788
 30
0.0
 10
49.2197998233683
 20
125.3704118379417
 30
0.0
 10
49.34235920963811
 20
125.3935551345
 30
0.0
 10
49.64255164068368
 20
125.3935551345
 30
0.0
 10
49.77997306467341
 20
125.3655371742691
 30
0.0
 10
49.8920449055971
 20
125.3108354423897
 30
0.0
 10
50.00464266451065
 20
125.2558770124438
 30
0.0
 10
50.08550225004864
 20
125.1814191498945
 30
0.0
 10
50.1362014161808
 20
125.0906943262897
 30
0.0
 10
50.18746873381211
 20
124.9989528105284
 30
0.0
 10
50.212250165379
 20
124.9119130562447
 30
0.0
 10
50.212250165379
 20
124.8198540440575
 30
0.0
 10
50.212250165379
 20
124.8065121582332
 30
0.0
 10
50.212250165379
 20
124.7864993294968
 30
0.0
  0
LINE
  5
107
330
40
100
AcDbEntity
  8
0012875
  6
Continuous
 62
     7
100
AcDbLine
 10
57.3606892549
 20
122.0569601545
 30
0.0
 11
57.4855931719
 21
122.4569601545
 31
0.0
  0
LINE
  5
108
330
40
100
AcDbEntity
  8
0012875
  6
Continuous
 62
     7
100
AcDbLine
 10
57.4855931719
 20
122.4569601545
 30
0.0
 11
47.6438508372
 21
122.4569601545
 31
0.0
  0
ENDBLK
  5
10A
330
40
100
AcDbEntity
  8
0
100
AcDbBlockEnd
  0
BLOCK
  5
111
330
10B
100
AcDbEntity
  8
0
100
AcDbBlockBegin
  2
SE1
 70
     0
 10
0.0
 20
0.0
 30
0.0
  3
SE1
  1

  0
LINE
  5
10D
330
10B
100
AcDbEntity
  8
0012875
  6
Continuous
 62
     7
100
AcDbLine
 10
273.1148170304
 20
62.9656242197
 30
0.0
 11
38.7148170304
 21
62.9656242197
 31
0.0
  0
LINE
  5
10E
330
10B
100
AcDbEntity
  8
0012875
  6
Continuous
 62
     7
100
AcDbLine
 10
273.1148170304
 20
80.5656242197
 30
0.0
 11
38.7148170304
 21
80.5656242197
 31
0.0
  0
LINE
  5
10F
330
10B
100
AcDbEntity
  8
0012875
  6
Continuous
 62
     7
100
AcDbLine
 10
38.7148170304
 20
62.9656242197
 30
0.0
 11
38.7148170304
 21
80.5656242197
 31
0.0
  0
LINE
  5
110
330
10B
100
AcDbEntity
  8
0012875
  6
Continuous
 62
     7
100
AcDbLine
 10
273.1148170304
 20
62.9656242197
 30
0.0
 11
273.1148170304
 21
80.5656242197
 31
0.0
  0
ENDBLK
  5
112
330
10B
100
AcDbEntity
  8
0
100
AcDbBlockEnd
  0
BLOCK
  5
11C
330
113
100
AcDbEntity
  8
0
100
AcDbBlockBegin
  2
GDimGGroup
 70
     0
 10
0.0
 20
0.0
 30
0.0
  3
GDimGGroup
  1

  0
HATCH
  5
115
330
113
100
AcDbEntity
  8
Default
  6
Continuous
 62
     7
100
AcDbHatch
 10
0.0
 20
0.0
 30
0.0
210
0.0
220
0.0
230
1.0
  2
SOLID
 70
     1
 71
     0
 91
        1
 92
        1
 93
        3
 72
     1
 10
42.21481713845396
 20
160.515156190234
 11
38.71481703042054
 21
159.9318228388951
 72
     1
 10
38.71481703042054
 20
159.9318228388951
 11
42.21481713845396
 21
159.3484894875562
 72
     1
 10
42.21481713845396
 20
159.3484894875562
 11
42.21481713845396
 21
160.515156190234
 97
        0
 75
     0
 76
     1
 98
        0
  0
HATCH
  5
116
330
113
100
AcDbEntity
  8
Default
  6
Continuous
 62
     7
100
AcDbHatch
 10
0.0
 20
0.0
 30
0.0
210
0.0
220
0.0
230
1.0
  2
SOLID
 70
     1
 71
     0
 91
        1
 92
        1
 93
        3
 72
     1
 10
269.6148210708704
 20
160.515156190234
 11
269.6148210708704
 21
159.3484894875562
 72
     1
 10
269.6148210708704
 20
159.3484894875562
 11
273.1148211789039
 21
159.9318228388951
 72
     1
 10
273.1148211789039
 20
159.9318228388951
 11
269.6148210708704
 21
160.515156190234
 97
        0
 75
     0
 76
     1
 98
        0
  0
LINE
  5
117
330
113
100
AcDbEntity
  8
Default
  6
Continuous
 62
     7
100
AcDbLine
 10
38.7148170304
 20
135.0613228704
 30
0.0
 11
38.7148170304
 21
161.6818228929
 31
0.0
  0
LINE
  5
118
330
113
100
AcDbEntity
  8
Default
  6
Continuous
 62
     7
100
AcDbLine
 10
273.1148170304
 20
135.0613228704
 30
0.0
 11
273.1148170304
 21
161.6818228929
 31
0.0
  0
LINE
  5
119
330
113
100
AcDbEntity
  8
Default
  6
Continuous
 62
     7
100
AcDbLine
 10
38.7148170304
 20
159.9318228389
 30
0.0
 11
273.1148211789
 21
159.9318228389
 31
0.0
  0
TEXT
  5
11B
330
113
100
AcDbEntity
  8
Default
  6
Continuous
 62
     7
100
AcDbText
 10
152.8523191047
 20
160.8068228389
 30
0.0
 40
3.5
  1
293
  7
SEACAD_Solid_Edge_ISO
 11
152.8523191047
 21
164.3068228389
 31
0.0
100
AcDbText
 73
     3
  0
ENDBLK
  5
11D
330
113
100
AcDbEntity
  8
0
100
AcDbBlockEnd
  0
BLOCK
  5
126
330
11E
100
AcDbEntity
  8
0
100
AcDbBlockBegin
  2
GDimGGroup1
 70
     0
 10
0.0
 20
0.0
 30
0.0
  3
GDimGGroup1
  1

  0
HATCH
  5
120
330
11E
100
AcDbEntity
  8
Default
  6
Continuous
 62
     7
100
AcDbHatch
 10
0.0
 20
0.0
 30
0.0
210
0.0
220
0.0
230
1.0
  2
SOLID
 70
     1
 71
     0
 91
        1
 92
        1
 93
        3
 72
     1
 10
25.7983671849625
 20
147.1613227623329
 11
26.96503388764031
 21
147.1613227623329
 72
     1
 10
26.9650338876403
 20
147.1613227623329
 11
26.3817005363014
 21
150.6613228703663
 72
     1
 10
26.3817005363014
 20
150.6613228703663
 11
25.7983671849625
 21
147.1613227623329
 97
        0
 75
     0
 76
     1
 98
        0
  0
HATCH
  5
121
330
11E
100
AcDbEntity
  8
Default
  6
Continuous
 62
     7
100
AcDbHatch
 10
0.0
 20
0.0
 30
0.0
210
0.0
220
0.0
230
1.0
  2
SOLID
 70
     1
 71
     0
 91
        1
 92
        1
 93
        3
 72
     1
 10
25.7983671849625
 20
122.9613238247857
 11
26.3817005363014
 21
119.4613237167523
 72
     1
 10
26.3817005363014
 20
119.4613237167523
 11
26.96503388764031
 21
122.9613238247857
 72
     1
 10
26.9650338876403
 20
122.9613238247857
 11
25.79836718496249
 21
122.9613238247857
 97
        0
 75
     0
 76
     1
 98
        0
  0
LINE
  5
122
330
11E
100
AcDbEntity
  8
Default
  6
Continuous
 62
     7
100
AcDbLine
 10
38.7148170304
 20
150.6613228704
 30
0.0
 11
24.6317004823
 21
150.6613228704
 31
0.0
  0
LINE
  5
123
330
11E
100
AcDbEntity
  8
Default
  6
Continuous
 62
     7
100
AcDbLine
 10
38.7148170304
 20
119.4613228704
 30
0.0
 11
24.6317004823
 21
119.4613228704
 31
0.0
  0
LINE
  5
124
330
11E
100
AcDbEntity
  8
Default
  6
Continuous
 62
     7
100
AcDbLine
 10
26.3817005363
 20
150.6613228704
 30
0.0
 11
26.3817005363
 21
119.4613237168
 31
0.0
  0
TEXT
  5
125
330
11E
100
AcDbEntity
  8
Default
  6
Continuous
 62
     7
100
AcDbText
 10
25.5067005363
 20
133.0726869299
 30
0.0
 40
3.5
  1
39
 50
90.0
  7
SEACAD_Solid_Edge_ISO
 11
22.0067005363
 21
133.0726869299
 31
0.0
100
AcDbText
 73
     3
  0
ENDBLK
  5
127
330
11E
100
AcDbEntity
  8
0
100
AcDbBlockEnd
  0
BLOCK
  5
130
330
128
100
AcDbEntity
  8
0
100
AcDbBlockBegin
  2
GDimGGroup2
 70
     0
 10
0.0
 20
0.0
 30
0.0
  3
GDimGGroup2
  1

  0
HATCH
  5
12A
330
128
100
AcDbEntity
  8
Default
  6
Continuous
 62
     7
100
AcDbHatch
 10
0.0
 20
0.0
 30
0.0
210
0.0
220
0.0
230
1.0
  2
SOLID
 70
     1
 71
     0
 91
        1
 92
        1
 93
        3
 72
     1
 10
25.7983671849625
 20
66.46562432768813
 11
26.3817005363014
 21
62.96562421965471
 72
     1
 10
26.3817005363014
 20
62.96562421965471
 11
26.96503388764031
 21
66.46562432768812
 72
     1
 10
26.9650338876403
 20
66.46562432768813
 11
25.79836718496249
 21
66.46562432768813
 97
        0
 75
     0
 76
     1
 98
        0
  0
HATCH
  5
12B
330
128
100
AcDbEntity
  8
Default
  6
Continuous
 62
     7
100
AcDbHatch
 10
0.0
 20
0.0
 30
0.0
210
0.0
220
0.0
230
1.0
  2
SOLID
 70
     1
 71
     0
 91
        1
 92
        1
 93
        3
 72
     1
 10
25.7983671849625
 20
77.06562401625386
 11
26.96503388764031
 21
77.06562401625386
 72
     1
 10
26.9650338876403
 20
77.06562401625386
 11
26.3817005363014
 21
80.56562412428728
 72
     1
 10
26.3817005363014
 20
80.56562412428728
 11
25.7983671849625
 21
77.06562401625386
 97
        0
 75
     0
 76
     1
 98
        0
  0
LINE
  5
12C
330
128
100
AcDbEntity
  8
Default
  6
Continuous
 62
     7
100
AcDbLine
 10
38.7148170304
 20
62.9656242197
 30
0.0
 11
24.6317004823
 21
62.9656242197
 31
0.0
  0
LINE
  5
12D
330
128
100
AcDbEntity
  8
Default
  6
Continuous
 62
     7
100
AcDbLine
 10
38.7148170304
 20
80.5656242197
 30
0.0
 11
24.6317004823
 21
80.5656242197
 31
0.0
  0
LINE
  5
12E
330
128
100
AcDbEntity
  8
Default
  6
Continuous
 62
     7
100
AcDbLine
 10
26.3817005363
 20
62.9656242197
 30
0.0
 11
26.3817005363
 21
80.5656241243
 31
0.0
  0
TEXT
  5
12F
330
128
100
AcDbEntity
  8
Default
  6
Continuous
 62
     7
100
AcDbText
 10
25.5067005363
 20
69.6178968992
 30
0.0
 40
3.5
  1
22
 50
90.0
  7
SEACAD_Solid_Edge_ISO
 11
22.0067005363
 21
69.6178968992
 31
0.0
100
AcDbText
 73
     3
  0
ENDBLK
  5
131
330
128
100
AcDbEntity
  8
0
100
AcDbBlockEnd
  0
BLOCK
  5
135
330
132
100
AcDbEntity
  8
0
100
AcDbBlockBegin
  2
SEANNOT_GROUP
 70
     0
 10
0.0
 20
0.0
 30
0.0
  3
SEANNOT_GROUP
  1

  0
TEXT
  5
134
330
132
100
AcDbEntity
  8
Default
  6
Continuous
 62
     7
100
AcDbText
 10
243.1483969886
 20
25.7525109624
 30
0.0
 40
3.5
  1
712225000
  7
SEACAD_Solid_Edge_ANSIB
 11
243.1483969886
 21
29.2525109624
 31
0.0
100
AcDbText
 73
     3
  0
ENDBLK
  5
136
330
132
100
AcDbEntity
  8
0
100
AcDbBlockEnd
  0
BLOCK
  5
13A
330
137
100
AcDbEntity
  8
0
100
AcDbBlockBegin
  2
SEANNOT_GROUP1
 70
     0
 10
0.0
 20
0.0
 30
0.0
  3
SEANNOT_GROUP1
  1

  0
TEXT
  5
139
330
137
100
AcDbEntity
  8
Default
  6
Continuous
 62
     7
100
AcDbText
 10
243.1477357349
 20
20.0537100543
 30
0.0
 40
3.5
  1
14.10.2015
  7
SEACAD_Solid_Edge_ANSI
 11
243.1477357349
 21
23.5537100543
 31
0.0
100
AcDbText
 73
     3
  0
ENDBLK
  5
13B
330
137
100
AcDbEntity
  8
0
100
AcDbBlockEnd
  0
BLOCK
  5
13E
330
13C
100
AcDbEntity
  8
0
100
AcDbBlockBegin
  2
SEANNOT_GROUP2
 70
     0
 10
0.0
 20
0.0
 30
0.0
  3
SEANNOT_GROUP2
  1

  0
TEXT
  5
13D
330
13C
100
AcDbEntity
  8
Default
  6
Continuous
 62
     7
100
AcDbText
 10
243.1795282745
 20
31.5598894014
 30
0.0
 40
3.5
  1
DSR 25
  7
SEACAD_Solid_Edge_ANSIB
 11
243.1795282745
 21
35.0598894014
 31
0.0
100
AcDbText
 73
     3
  0
ENDBLK
  5
13F
330
13C
100
AcDbEntity
  8
0
100
AcDbBlockEnd
  0
BLOCK
  5
142
330
140
100
AcDbEntity
  8
0
100
AcDbBlockBegin
  2
SEANNOT_GROUP3
 70
     0
 10
0.0
 20
0.0
 30
0.0
  3
SEANNOT_GROUP3
  1

  0
TEXT
  5
141
330
140
100
AcDbEntity
  8
Default
  6
Continuous
 62
     7
100
AcDbText
 10
243.2357917511
 20
14.1955389783
 30
0.0
 40
3.5
  1
1:1.25
  7
SEACAD_Solid_Edge_ANSI
 11
243.2357917511
 21
17.6955389783
 31
0.0
100
AcDbText
 73
     3
  0
ENDBLK
  5
143
330
140
100
AcDbEntity
  8
0
100
AcDbBlockEnd
  0
BLOCK
  5
18A
330
144
100
AcDbEntity
  8
0
100
AcDbBlockBegin
  2
Block1
 70
     0
 10
0.0
 20
0.0
 30
0.0
  3
Block1
  1

  0
LINE
  5
145
330
144
100
AcDbEntity
  8
Default
  6
Continuous
 62
     7
100
AcDbLine
 10
42.3415792923
 20
6.5926277851
 30
0.0
 11
40.225655308
 21
3.525
 31
0.0
  0
LINE
  5
146
330
144
100
AcDbEntity
  8
Default
  6
Continuous
 62
     7
100
AcDbLine
 10
40.225655308
 20
3.525
 30
0.0
 11
41.2882372215
 21
1.9958060288
 31
0.0
  0
LINE
  5
147
330
144
100
AcDbEntity
  8
Default
  6
Continuous
 62
     7
100
AcDbLine
 10
41.2882372215
 20
1.9958060288
 30
0.0
 11
40.2556847969
 21
0.5266710354
 31
0.0
  0
LINE
  5
148
330
144
100
AcDbEntity
  8
Default
  6
Continuous
 62
     7
100
AcDbLine
 10
40.2556847969
 20
0.5266710354
 30
0.0
 11
39.2231323722
 21
2.1459534731
 31
0.0
  0
LINE
  5
149
330
144
100
AcDbEntity
  8
Default
  6
Continuous
 62
     7
100
AcDbLine
 10
39.2231323722
 20
2.1459534731
 30
0.0
 11
37.7031782438
 21
0.0
 31
0.0
  0
LINE
  5
14A
330
144
100
AcDbEntity
  8
Default
  6
Continuous
 62
     7
100
AcDbLine
 10
37.7031782438
 20
0.0
 30
0.0
 11
35.6265235911
 21
0.0
 31
0.0
  0
LINE
  5
14B
330
144
100
AcDbEntity
  8
Default
  6
Continuous
 62
     7
100
AcDbLine
 10
35.6265235911
 20
0.0
 30
0.0
 11
38.209059633
 21
3.525
 31
0.0
  0
LINE
  5
14C
330
144
100
AcDbEntity
  8
Default
  6
Continuous
 62
     7
100
AcDbLine
 10
38.209059633
 20
3.525
 30
0.0
 11
36.1046854522
 21
6.5926277851
 31
0.0
  0
LINE
  5
14D
330
144
100
AcDbEntity
  8
Default
  6
Continuous
 62
     7
100
AcDbLine
 10
36.1046854522
 20
6.5926277851
 30
0.0
 11
38.209059633
 21
6.5926277851
 31
0.0
  0
LINE
  5
14E
330
144
100
AcDbEntity
  8
Default
  6
Continuous
 62
     7
100
AcDbLine
 10
38.209059633
 20
6.5926277851
 30
0.0
 11
39.2231323722
 21
4.8855668414
 31
0.0
  0
LINE
  5
14F
330
144
100
AcDbEntity
  8
Default
  6
Continuous
 62
     7
100
AcDbLine
 10
39.2231323722
 20
4.8855668414
 30
0.0
 11
40.225655308
 21
6.5926277851
 31
0.0
  0
LINE
  5
150
330
144
100
AcDbEntity
  8
Default
  6
Continuous
 62
     7
100
AcDbLine
 10
40.225655308
 20
6.5926277851
 30
0.0
 11
42.3415792923
 21
6.5926277851
 31
0.0
  0
SPLINE
  5
151
330
144
100
AcDbEntity
  8
Default
  6
Continuous
 62
     7
100
AcDbSpline
210
0.0
220
0.0
230
1.0
 70
     8
 71
     3
 72
    13
 73
     9
 74
     0
 42
0.0000000012369638
 43
0.0000000001
 12
1.0
 22
0.0
 32
0.0
 13
1.0
 23
0.0
 33
0.0
 40
0.0
 40
0.0
 40
0.0
 40
0.0
 40
0.9091644120227717
 40
0.9091644120227717
 40
0.9091644120227717
 40
0.9554905618911577
 40
0.9554905618911577
 40
1.0
 40
1.0
 40
1.0
 40
1.0
 10
40.88399410222804
 20
0.427342726081259
 30
0.0
 10
42.29076015727392
 20
2.423148754914811
 30
0.0
 10
43.69752621231979
 20
4.418954783748362
 30
0.0
 10
45.10429226736566
 20
6.414760812581914
 30
0.0
 10
45.18660375034128
 20
6.531537694833034
 30
0.0
 10
45.28446920052424
 20
6.592627785058978
 30
0.0
 10
45.51546526867628
 20
6.592627785058978
 30
0.0
 10
45.61941349934469
 20
6.53256880733945
 30
0.0
 10
45.71181192660551
 20
6.414760812581914
 30
0.0
  0
SPLINE
  5
152
330
144
100
AcDbEntity
  8
Default
  6
Continuous
 62
     7
100
AcDbSpline
210
0.0
220
0.0
230
1.0
 70
     8
 71
     3
 72
    16
 73
    12
 74
     0
 42
0.0000000006014133
 43
0.0000000001
 12
1.0
 22
0.0
 32
0.0
 13
1.0
 23
0.0
 33
0.0
 40
0.0
 40
0.0
 40
0.0
 40
0.0
 40
0.4418652593848311
 40
0.4418652593848311
 40
0.4418652593848311
 40
0.455090010411123
 40
0.455090010411123
 40
0.4811129075918901
 40
0.4811129075918901
 40
0.4811129075918901
 40
1.0
 40
1.0
 40
1.0
 40
1.0
 10
45.71181192660551
 20
6.414760812581914
 30
0.0
 10
47.11857798165137
 20
4.418954783748362
 30
0.0
 10
48.52534403669725
 20
2.42314875491481
 30
0.0
 10
49.93211009174313
 20
0.427342726081259
 30
0.0
 10
49.98455330475264
 20
0.352940532254955
 30
0.0
 10
50.01295871559633
 20
0.281815203145479
 30
0.0
 10
50.01295871559633
 20
0.0692988204456104
 30
0.0
 10
49.91363040629096
 20
0.0000000000000009
 30
0.0
 10
49.71497378768021
 20
0.0000000000000009
 30
0.0
 10
46.84754259501965
 20
0.0000000000000009
 30
0.0
 10
43.98011140235911
 20
0.0000000000000009
 30
0.0
 10
41.11268020969855
 20
0.0000000000000009
 30
0.0
  0
SPLINE
  5
153
330
144
100
AcDbEntity
  8
Default
  6
Continuous
 62
     7
100
AcDbSpline
210
0.0
220
0.0
230
1.0
 70
     8
 71
     3
 72
    11
 73
     7
 74
     0
 42
0.0000000141737466
 43
0.0000000001
 12
1.0
 22
0.0
 32
0.0
 13
1.0
 23
0.0
 33
0.0
 40
0.0
 40
0.0
 40
0.0
 40
0.0
 40
0.6560933575639865
 40
0.6560933575639865
 40
0.6560933575639865
 40
1.0
 40
1.0
 40
1.0
 40
1.0
 10
41.11268020969855
 20
0.0000000000000009
 30
0.0
 10
40.90709370904325
 20
0.0000000000000009
 30
0.0
 10
40.80545543905635
 20
0.0739187418086509
 30
0.0
 10
40.80314547837483
 20
0.2194462647444313
 30
0.0
 10
40.80230295367286
 20
0.2725253209688669
 30
0.0
 10
40.83086500655307
 20
0.3418741808650076
 30
0.0
 10
40.88399410222804
 20
0.427342726081259
 30
0.0
  0
LINE
  5
154
330
144
100
AcDbEntity
  8
Default
  6
Continuous
 62
     7
100
AcDbLine
 10
35.1853211009
 20
6.6087975098
 30
0.0
 11
35.1853211009
 21
0.0
 31
0.0
  0
SPLINE
  5
155
330
144
100
AcDbEntity
  8
Default
  6
Continuous
 62
     7
100
AcDbSpline
210
0.0
220
0.0
230
1.0
 70
     8
 71
     3
 72
    14
 73
    10
 74
     0
 42
0.0000000052950889
 43
0.0000000001
 12
1.0
 22
0.0
 32
0.0
 13
1.0
 23
0.0
 33
0.0
 40
0.0
 40
0.0
 40
0.0
 40
0.0
 40
0.1210177131110554
 40
0.1210177131110554
 40
0.1210177131110554
 40
0.2419901306838391
 40
0.2419901306838391
 40
0.2419901306838391
 40
1.0
 40
1.0
 40
1.0
 40
1.0
 10
33.47364023591088
 20
6.320052424639582
 30
0.0
 10
33.47364023591088
 20
6.400901048492791
 30
0.0
 10
33.50135976408912
 20
6.467889908256881
 30
0.0
 10
33.55910878112713
 20
6.523328964613368
 30
0.0
 10
33.61680971405436
 20
6.578721860223512
 30
0.0
 10
33.68153669724771
 20
6.608797509829621
 30
0.0
 10
33.76238532110091
 20
6.608797509829621
 30
0.0
 10
34.23669724770642
 20
6.608797509829621
 30
0.0
 10
34.71100917431193
 20
6.608797509829621
 30
0.0
 10
35.18532110091743
 20
6.608797509829621
 30
0.0
  0
LINE
  5
156
330
144
100
AcDbEntity
  8
Default
  6
Continuous
 62
     7
100
AcDbLine
 10
33.4736402359
 20
0.0
 30
0.0
 11
33.4736402359
 21
6.3200524246
 31
0.0
  0
LINE
  5
157
330
144
100
AcDbEntity
  8
Default
  6
Continuous
 62
     7
100
AcDbLine
 10
35.1853211009
 20
0.0
 30
0.0
 11
33.4736402359
 21
0.0
 31
0.0
  0
SPLINE
  5
158
330
144
100
AcDbEntity
  8
Default
  6
Continuous
 62
     7
100
AcDbSpline
210
0.0
220
0.0
230
1.0
 70
     8
 71
     3
 72
    16
 73
    12
 74
     0
 42
0.0000000009758823
 43
0.0000000001
 12
1.0
 22
0.0
 32
0.0
 13
1.0
 23
0.0
 33
0.0
 40
0.0
 40
0.0
 40
0.0
 40
0.0
 40
0.6159054655977501
 40
0.6159054655977501
 40
0.6159054655977501
 40
0.6376683166669079
 40
0.6376683166669079
 40
0.6603379531972834
 40
0.6603379531972834
 40
0.6603379531972834
 40
1.0
 40
1.0
 40
1.0
 40
1.0
 10
28.82137942332896
 20
0.0
 30
0.0
 10
28.82137942332896
 20
2.101294233289646
 30
0.0
 10
28.82137942332896
 20
4.202588466579293
 30
0.0
 10
28.82137942332896
 20
6.303882699868939
 30
0.0
 10
28.82137942332896
 20
6.38473132372215
 30
0.0
 10
28.84909895150721
 20
6.451720183486239
 30
0.0
 10
28.96228702490171
 20
6.564908256880734
 30
0.0
 10
29.02927588466579
 20
6.592627785058978
 30
0.0
 10
29.110124508519
 20
6.592627785058978
 30
0.0
 10
30.26895478374836
 20
6.592627785058978
 30
0.0
 10
31.42778505897771
 20
6.592627785058978
 30
0.0
 10
32.58661533420707
 20
6.592627785058978
 30
0.0
  0
LINE
  5
159
330
144
100
AcDbEntity
  8
Default
  6
Continuous
 62
     7
100
AcDbLine
 10
30.5399901704
 20
0.0
 30
0.0
 11
28.8213794233
 21
0.0
 31
0.0
  0
LINE
  5
15A
330
144
100
AcDbEntity
  8
Default
  6
Continuous
 62
     7
100
AcDbLine
 10
30.5399901704
 20
2.5848460026
 30
0.0
 11
30.5399901704
 21
0.0
 31
0.0
  0
LINE
  5
15B
330
144
100
AcDbEntity
  8
Default
  6
Continuous
 62
     7
100
AcDbLine
 10
32.4872870249
 20
2.5848460026
 30
0.0
 11
30.5399901704
 21
2.5848460026
 31
0.0
  0
LINE
  5
15C
330
144
100
AcDbEntity
  8
Default
  6
Continuous
 62
     7
100
AcDbLine
 10
32.4872870249
 20
4.0424311927
 30
0.0
 11
32.4872870249
 21
2.5848460026
 31
0.0
  0
LINE
  5
15D
330
144
100
AcDbEntity
  8
Default
  6
Continuous
 62
     7
100
AcDbLine
 10
30.5399901704
 20
4.0424311927
 30
0.0
 11
32.4872870249
 21
4.0424311927
 31
0.0
  0
LINE
  5
15E
330
144
100
AcDbEntity
  8
Default
  6
Continuous
 62
     7
100
AcDbLine
 10
30.5399901704
 20
5.1419724771
 30
0.0
 11
30.5399901704
 21
4.0424311927
 31
0.0
  0
LINE
  5
15F
330
144
100
AcDbEntity
  8
Default
  6
Continuous
 62
     7
100
AcDbLine
 10
32.5866153342
 20
5.1419724771
 30
0.0
 11
30.5399901704
 21
5.1419724771
 31
0.0
  0
LINE
  5
160
330
144
100
AcDbEntity
  8
Default
  6
Continuous
 62
     7
100
AcDbLine
 10
32.5866153342
 20
6.5926277851
 30
0.0
 11
32.5866153342
 21
5.1419724771
 31
0.0
  0
LINE
  5
161
330
144
100
AcDbEntity
  8
Default
  6
Continuous
 62
     7
100
AcDbLine
 10
28.0706422018
 20
4.0424311927
 30
0.0
 11
28.0706422018
 21
2.5848460026
 31
0.0
  0
LINE
  5
162
330
144
100
AcDbEntity
  8
Default
  6
Continuous
 62
     7
100
AcDbLine
 10
25.9362385321
 20
4.0424311927
 30
0.0
 11
28.0706422018
 21
4.0424311927
 31
0.0
  0
LINE
  5
163
330
144
100
AcDbEntity
  8
Default
  6
Continuous
 62
     7
100
AcDbLine
 10
25.9362385321
 20
2.5848460026
 30
0.0
 11
25.9362385321
 21
4.0424311927
 31
0.0
  0
LINE
  5
164
330
144
100
AcDbEntity
  8
Default
  6
Continuous
 62
     7
100
AcDbLine
 10
28.0706422018
 20
2.5848460026
 30
0.0
 11
25.9362385321
 21
2.5848460026
 31
0.0
  0
SPLINE
  5
165
330
144
100
AcDbEntity
  8
Default
  6
Continuous
 62
     7
100
AcDbSpline
210
0.0
220
0.0
230
1.0
 70
    11
 71
     3
 72
    47
 73
    43
 74
     0
 42
0.0000000008494054
 43
0.0000000001
 12
1.0
 22
0.0
 32
0.0
 13
1.0
 23
0.0
 33
0.0
 40
0.0
 40
0.0
 40
0.0
 40
0.0
 40
0.0637917384076936
 40
0.0637917384076936
 40
0.0637917384076936
 40
0.1265834997779105
 40
0.1265834997779105
 40
0.1893752611481286
 40
0.1893752611481286
 40
0.1893752611481286
 40
0.2604081010642026
 40
0.2604081010642026
 40
0.3159741129340349
 40
0.3159741129340349
 40
0.3159741129340349
 40
0.3751091105868484
 40
0.3751091105868484
 40
0.3751091105868484
 40
0.435995169879425
 40
0.435995169879425
 40
0.435995169879425
 40
0.4997689343159713
 40
0.4997689343159713
 40
0.5635426987525196
 40
0.5635426987525196
 40
0.5635426987525196
 40
0.624232315369434
 40
0.624232315369434
 40
0.624232315369434
 40
0.6835869381889372
 40
0.6835869381889372
 40
0.6835869381889372
 40
0.7357943705008892
 40
0.7357943705008892
 40
0.8025337685079206
 40
0.8025337685079206
 40
0.8692731665149518
 40
0.8692731665149518
 40
0.9360125645219831
 40
0.9360125645219831
 40
0.9360125645219831
 40
1.0
 40
1.0
 40
1.0
 40
1.0
 10
21.44336500655308
 20
1.450655307994758
 30
0.0
 10
21.70208060288335
 20
1.450655307994758
 30
0.0
 10
21.94462647444299
 20
1.501474442988205
 30
0.0
 10
22.16869266055046
 20
1.600802752293579
 30
0.0
 10
22.39468942225328
 20
1.700986883770089
 30
0.0
 10
22.5937254259502
 20
1.836418741808651
 30
0.0
 10
22.93097968545217
 20
2.187532765399738
 30
0.0
 10
23.06495740498034
 20
2.395429226736567
 30
0.0
 10
23.15966579292267
 20
2.63335517693316
 30
0.0
 10
23.25469013236262
 20
2.87207485894082
 30
0.0
 10
23.30519331585845
 20
3.132306684141548
 30
0.0
 10
23.30519331585845
 20
3.642807994757537
 30
0.0
 10
23.25668414154652
 20
3.862254259501967
 30
0.0
 10
23.15966579292267
 20
4.074770642201835
 30
0.0
 10
23.06391850987524
 20
4.284502786020031
 30
0.0
 10
22.93097968545217
 20
4.472083879423329
 30
0.0
 10
22.76235255570118
 20
4.636091087811272
 30
0.0
 10
22.59487996078263
 20
4.798975392458079
 30
0.0
 10
22.39506880733945
 20
4.927146133682831
 30
0.0
 10
22.16869266055046
 20
5.021854521625164
 30
0.0
 10
21.94345992894685
 20
5.116084541989939
 30
0.0
 10
21.70208060288335
 20
5.167382044560944
 30
0.0
 10
21.18464941022281
 20
5.167382044560944
 30
0.0
 10
20.94210353866317
 20
5.118872870249017
 30
0.0
 10
20.71572739187418
 20
5.021854521625164
 30
0.0
 10
20.49213912866634
 20
4.926030980250372
 30
0.0
 10
20.29300458715597
 20
4.797788335517694
 30
0.0
 10
20.12437745740498
 20
4.636091087811272
 30
0.0
 10
19.95459636352431
 20
4.473287299158574
 30
0.0
 10
19.82177260812581
 20
4.284977064220183
 30
0.0
 10
19.72244429882045
 20
4.074770642201835
 30
0.0
 10
19.62222370164274
 20
3.86267589003505
 30
0.0
 10
19.57229685452162
 20
3.642807994757537
 30
0.0
 10
19.57229685452162
 20
3.132306684141548
 30
0.0
 10
19.62311598951508
 20
2.871281127129752
 30
0.0
 10
19.82177260812581
 20
2.395429226736567
 30
0.0
 10
19.95575032765399
 20
2.187532765399738
 30
0.0
 10
20.29300458715597
 20
1.836418741808651
 30
0.0
 10
20.49166120576671
 20
1.700131061598952
 30
0.0
 10
20.71572739187418
 20
1.600802752293579
 30
0.0
 10
20.941724153577
 20
1.500618620817073
 30
0.0
 10
21.18464941022281
 20
1.450655307994758
 30
0.0
 10
21.44336500655308
 20
1.450655307994758
 30
0.0
  0
SPLINE
  5
166
330
144
100
AcDbEntity
  8
Default
  6
Continuous
 62
     7
100
AcDbSpline
210
0.0
220
0.0
230
1.0
 70
    11
 71
     3
 72
    49
 73
    45
 74
     0
 42
0.0000000004385322
 43
0.0000000001
 12
1.0
 22
0.0
 32
0.0
 13
1.0
 23
0.0
 33
0.0
 40
0.0
 40
0.0
 40
0.0
 40
0.0
 40
0.0617996483207596
 40
0.0617996483207596
 40
0.0617996483207596
 40
0.1220737652654132
 40
0.1220737652654132
 40
0.1220737652654132
 40
0.1820249318660078
 40
0.1820249318660078
 40
0.1820249318660078
 40
0.2438982680995642
 40
0.2438982680995642
 40
0.3109516975991858
 40
0.3109516975991858
 40
0.3109516975991858
 40
0.3722543214771952
 40
0.3722543214771952
 40
0.3722543214771952
 40
0.4335172266527087
 40
0.4335172266527087
 40
0.4335172266527087
 40
0.4994898970728853
 40
0.4994898970728853
 40
0.5657506577569065
 40
0.5657506577569065
 40
0.5657506577569065
 40
0.626961718898901
 40
0.626961718898901
 40
0.6886100019061948
 40
0.6886100019061948
 40
0.6886100019061948
 40
0.7556907268882871
 40
0.7556907268882871
 40
0.8175892499404324
 40
0.8175892499404324
 40
0.8175892499404324
 40
0.8774725210786118
 40
0.8774725210786118
 40
0.8774725210786118
 40
0.9379094648157675
 40
0.9379094648157675
 40
0.9379094648157675
 40
1.0
 40
1.0
 40
1.0
 40
1.0
 10
21.44336500655308
 20
6.83055373525557
 30
0.0
 10
21.91919464291449
 20
6.832852429151036
 30
0.0
 10
22.37658912188729
 20
6.745085190039319
 30
0.0
 10
22.81317169069462
 20
6.581077981651377
 30
0.0
 10
23.25051470703607
 20
6.416785102496653
 30
0.0
 10
23.63782765399738
 20
6.181454783748363
 30
0.0
 10
23.97508191349934
 20
5.878849934469201
 30
0.0
 10
24.31246764930903
 20
5.576127116722139
 30
0.0
 10
24.58491153342071
 20
5.218201179554391
 30
0.0
 10
24.78587811271298
 20
4.800098296199214
 30
0.0
 10
24.9863762849025
 20
4.38296991497732
 30
0.0
 10
25.08848296199213
 20
3.926933158584535
 30
0.0
 10
25.08848296199213
 20
2.892070773263434
 30
0.0
 10
24.99839449541284
 20
2.402359108781128
 30
0.0
 10
24.81590760157274
 20
1.958846657929228
 30
0.0
 10
24.63260786737497
 20
1.513358696334639
 30
0.0
 10
24.38163499344692
 20
1.129570773263435
 30
0.0
 10
24.06055045871559
 20
0.8038663171690699
 30
0.0
 10
23.7406207864759
 20
0.4793333402928437
 30
0.0
 10
23.3560124508519
 20
0.2286861074705122
 30
0.0
 10
22.90788007863696
 20
0.0485091743119273
 30
0.0
 10
22.46253572118054
 20
-0.1305468044592142
 30
0.0
 10
21.97234600262123
 20
-0.2194462647444295
 30
0.0
 10
20.91207404980341
 20
-0.2194462647444295
 30
0.0
 10
20.42467234600262
 20
-0.1293577981651364
 30
0.0
 10
19.9788499344692
 20
0.0485091743119273
 30
0.0
 10
19.53023971314575
 20
0.2274883817829441
 30
0.0
 10
19.14495412844037
 20
0.4804718217562263
 30
0.0
 10
18.49585517693316
 20
1.129570773263435
 30
0.0
 10
18.24406946264745
 20
1.513024246395807
 30
0.0
 10
18.06158256880734
 20
1.958846657929228
 30
0.0
 10
17.87990551563201
 20
2.402690597965156
 30
0.0
 10
17.78669724770642
 20
2.892070773263434
 30
0.0
 10
17.78669724770642
 20
3.926933158584535
 30
0.0
 10
17.88833551769332
 20
4.384305373525557
 30
0.0
 10
18.0916120576671
 20
4.800098296199214
 30
0.0
 10
18.2953544565906
 20
5.21684411217912
 30
0.0
 10
18.56284403669725
 20
5.57855504587156
 30
0.0
 10
18.90009829619921
 20
5.878849934469201
 30
0.0
 10
19.23849979910015
 20
6.18016634116182
 30
0.0
 10
19.62773591087812
 20
6.414760812581914
 30
0.0
 10
20.06662844036697
 20
6.581077981651377
 30
0.0
 10
20.50677543450266
 20
6.747870526797538
 30
0.0
 10
20.96520314547837
 20
6.82824377457405
 30
0.0
 10
21.44336500655308
 20
6.83055373525557
 30
0.0
  0
LINE
  5
167
330
144
100
AcDbEntity
  8
Default
  6
Continuous
 62
     7
100
AcDbLine
 10
15.3335190039
 20
2.3145806029
 30
0.0
 11
13.8343545216
 21
2.3145806029
 31
0.0
  0
SPLINE
  5
168
330
144
100
AcDbEntity
  8
Default
  6
Continuous
 62
     7
100
AcDbSpline
210
0.0
220
0.0
230
1.0
 70
     8
 71
     3
 72
    43
 73
    39
 74
     0
 42
0.0000000009932047
 43
0.0000000001
 12
1.0
 22
0.0
 32
0.0
 13
1.0
 23
0.0
 33
0.0
 40
0.0
 40
0.0
 40
0.0
 40
0.0
 40
0.0949373847537602
 40
0.0949373847537602
 40
0.0949373847537602
 40
0.1911787086491429
 40
0.1911787086491429
 40
0.2677918678027036
 40
0.2677918678027036
 40
0.2677918678027036
 40
0.3406026976746725
 40
0.3406026976746725
 40
0.3406026976746725
 40
0.4151543081273698
 40
0.4151543081273698
 40
0.4151543081273698
 40
0.4895478942304584
 40
0.4895478942304584
 40
0.5659890102262922
 40
0.5659890102262922
 40
0.6424301262221261
 40
0.6424301262221261
 40
0.6424301262221261
 40
0.714798401889747
 40
0.714798401889747
 40
0.714798401889747
 40
0.7953127750919691
 40
0.7953127750919691
 40
0.8472575319966263
 40
0.8472575319966263
 40
0.8472575319966263
 40
0.898191982468852
 40
0.898191982468852
 40
0.898191982468852
 40
0.9471592991231073
 40
0.9471592991231073
 40
0.9471592991231073
 40
1.0
 40
1.0
 40
1.0
 40
1.0
 10
15.25498034076016
 20
4.25956749672346
 30
0.0
 10
15.1348623853211
 20
4.578342070773264
 30
0.0
 10
14.95468545216252
 20
4.832437745740499
 30
0.0
 10
14.7144495412844
 20
5.024164482306685
 30
0.0
 10
14.47167626156505
 20
5.217916234390401
 30
0.0
 10
14.17622870249017
 20
5.312909567496725
 30
0.0
 10
13.54560943643512
 20
5.312909567496725
 30
0.0
 10
13.30075360419397
 20
5.252850589777196
 30
0.0
 10
13.08361730013106
 20
5.13042267365662
 30
0.0
 10
12.86823374940279
 20
5.008983012075785
 30
0.0
 10
12.69092398427261
 20
4.84629750982962
 30
0.0
 10
12.54770642201835
 20
4.647640891218874
 30
0.0
 10
12.40527884987617
 20
4.450080065344236
 30
0.0
 10
12.29823066841416
 20
4.227228047182176
 30
0.0
 10
12.22662188728703
 20
3.980062254259503
 30
0.0
 10
12.15421681189757
 20
3.730147961786198
 30
0.0
 10
12.11574377457405
 20
3.481110747051115
 30
0.0
 10
12.11574377457405
 20
2.970609436435126
 30
0.0
 10
12.15501310615989
 20
2.721133682830931
 30
0.0
 10
12.30747051114023
 20
2.231422018348625
 30
0.0
 10
12.41834862385321
 20
2.009665792922674
 30
0.0
 10
12.56387614678899
 20
1.815629095674968
 30
0.0
 10
12.7105124508519
 20
1.620114023591089
 30
0.0
 10
12.88958060288335
 20
1.46220511140236
 30
0.0
 10
13.10440694626475
 20
1.344397116644824
 30
0.0
 10
13.32020716906946
 20
1.226055058977723
 30
0.0
 10
13.56870904325033
 20
1.16653014416776
 30
0.0
 10
14.03994102228047
 20
1.16653014416776
 30
0.0
 10
14.21780799475754
 20
1.189629750982963
 30
0.0
 10
14.39105504587156
 20
1.240448885976409
 30
0.0
 10
14.5615512434976
 20
1.290461103946714
 30
0.0
 10
14.7144495412844
 20
1.362876802096987
 30
0.0
 10
14.84842726081258
 20
1.457585190039319
 30
0.0
 10
14.98086470130555
 20
1.551204760042966
 30
0.0
 10
15.08866317169069
 20
1.672411533420708
 30
0.0
 10
15.17644167758847
 20
1.815629095674968
 30
0.0
 10
15.26256022686942
 20
1.956138307659666
 30
0.0
 10
15.31503931847969
 20
2.12285386631717
 30
0.0
 10
15.33351900393184
 20
2.314580602883356
 30
0.0
  0
LINE
  5
169
330
144
100
AcDbEntity
  8
Default
  6
Continuous
 62
     7
100
AcDbLine
 10
16.8835026212
 20
4.9456258191
 30
0.0
 11
15.2549803408
 21
4.2595674967
 31
0.0
  0
SPLINE
  5
16A
330
144
100
AcDbEntity
  8
Default
  6
Continuous
 62
     7
100
AcDbSpline
210
0.0
220
0.0
230
1.0
 70
     8
 71
     3
 72
    51
 73
    47
 74
     0
 42
0.0000000004766382
 43
0.0000000001
 12
1.0
 22
0.0
 32
0.0
 13
1.0
 23
0.0
 33
0.0
 40
0.0
 40
0.0
 40
0.0
 40
0.0
 40
0.0095402040290222
 40
0.0095402040290222
 40
0.0095402040290222
 40
0.0400756007423482
 40
0.0400756007423482
 40
0.0400756007423482
 40
0.0693620114069116
 40
0.0693620114069116
 40
0.0986484220714753
 40
0.0986484220714753
 40
0.0986484220714753
 40
0.1302632519246672
 40
0.1302632519246672
 40
0.1302632519246672
 40
0.2055179711079718
 40
0.2055179711079718
 40
0.2055179711079718
 40
0.281182745691462
 40
0.281182745691462
 40
0.3511962093102096
 40
0.3511962093102096
 40
0.3511962093102096
 40
0.4149417185613706
 40
0.4149417185613706
 40
0.4149417185613706
 40
0.4786592191897758
 40
0.4786592191897758
 40
0.4786592191897758
 40
0.5478830793697405
 40
0.5478830793697405
 40
0.6199007276287178
 40
0.6199007276287178
 40
0.6199007276287178
 40
0.6846819262147057
 40
0.6846819262147057
 40
0.6846819262147057
 40
0.7494892886116509
 40
0.7494892886116509
 40
0.7494892886116509
 40
0.8193637744922013
 40
0.8193637744922013
 40
0.9096818872461009
 40
0.9096818872461009
 40
1.0
 40
1.0
 40
1.0
 40
1.0
 10
17.14221821756225
 20
3.658977719528179
 30
0.0
 10
17.14221821756225
 20
3.59275884665793
 30
0.0
 10
17.14221821756225
 20
3.526539973787681
 30
0.0
 10
17.14221821756225
 20
3.460321100917432
 30
0.0
 10
17.14221821756225
 20
3.243184796854522
 30
0.0
 10
17.12835845347313
 20
3.030668414154654
 30
0.0
 10
17.11680865006553
 20
2.825081913499345
 30
0.0
 10
17.10526611434193
 20
2.619624777619178
 30
0.0
 10
17.08446920052425
 20
2.41852883355177
 30
0.0
 10
17.01055045871559
 20
2.021215596330276
 30
0.0
 10
16.95742136304062
 20
1.824868938401049
 30
0.0
 10
16.88350262123198
 20
1.633142201834863
 30
0.0
 10
16.80988280520848
 20
1.442190804023907
 30
0.0
 10
16.70563564875491
 20
1.249688728702491
 30
0.0
 10
16.5670380078637
 20
1.057961992136305
 30
0.0
 10
16.23809819736261
 20
0.6029285876097794
 30
0.0
 10
15.84633027522936
 20
0.2679554390563577
 30
0.0
 10
15.37971821756225
 20
0.06467889908257
 30
0.0
 10
14.91226036066398
 20
-0.1389661078830131
 30
0.0
 10
14.40029488859764
 20
-0.2425458715596323
 30
0.0
 10
13.32847313237222
 20
-0.2425458715596323
 30
0.0
 10
12.85262123197903
 20
-0.1593872870249009
 30
0.0
 10
12.41834862385321
 20
0.0092398427260818
 30
0.0
 10
11.9860833240235
 20
0.1770875389365569
 30
0.0
 10
11.61448230668415
 20
0.4157929226736576
 30
0.0
 10
11.30725753604194
 20
0.7183977719528185
 30
0.0
 10
10.99887791762487
 20
1.022140102874894
 30
0.0
 10
10.76210681520315
 20
1.39059633027523
 30
0.0
 10
10.58885976408912
 20
1.822558977719529
 30
0.0
 10
10.41673087643255
 20
2.251733670943243
 30
0.0
 10
10.33245412844037
 20
2.725753604193972
 30
0.0
 10
10.33245412844037
 20
3.776785714285715
 30
0.0
 10
10.41792267365662
 20
4.264187418086501
 30
0.0
 10
10.58885976408912
 20
4.700769986893841
 30
0.0
 10
10.76010389980871
 20
5.138136765961434
 30
0.0
 10
11.00465268676278
 20
5.511566186107471
 30
0.0
 10
11.31880733944954
 20
5.823410878112714
 30
0.0
 10
11.6318070432484
 20
6.134109113501288
 30
0.0
 10
12.00948558322411
 20
6.373181520314549
 30
0.0
 10
12.44837811271297
 20
6.544118610747052
 30
0.0
 10
12.88849518360602
 20
6.715532627831713
 30
0.0
 10
13.37467234600262
 20
6.795904325032767
 30
0.0
 10
14.58740170380079
 20
6.795904325032767
 30
0.0
 10
15.18106159895151
 20
6.643446920052426
 30
0.0
 10
16.20206422018348
 20
6.033617300131063
 30
0.0
 10
16.59937745740498
 20
5.56931520314548
 30
0.0
 10
16.88350262123198
 20
4.945625819134994
 30
0.0
  0
LINE
  5
16B
330
144
100
AcDbEntity
  8
Default
  6
Continuous
 62
     7
100
AcDbLine
 10
13.8343545216
 20
3.6589777195
 30
0.0
 11
17.1422182176
 21
3.6589777195
 31
0.0
  0
LINE
  5
16C
330
144
100
AcDbEntity
  8
Default
  6
Continuous
 62
     7
100
AcDbLine
 10
13.8343545216
 20
2.3145806029
 30
0.0
 11
13.8343545216
 21
3.6589777195
 31
0.0
  0
SPLINE
  5
16D
330
144
100
AcDbEntity
  8
Default
  6
Continuous
 62
     7
100
AcDbSpline
210
0.0
220
0.0
230
1.0
 70
     8
 71
     3
 72
    16
 73
    12
 74
     0
 42
0.000000000976763
 43
0.0000000001
 12
1.0
 22
0.0
 32
0.0
 13
1.0
 23
0.0
 33
0.0
 40
0.0
 40
0.0
 40
0.0
 40
0.0
 40
0.6164577788718584
 40
0.6164577788718584
 40
0.6164577788718584
 40
0.6381328433885463
 40
0.6381328433885463
 40
0.6607110355934293
 40
0.6607110355934293
 40
0.6607110355934293
 40
1.0
 40
1.0
 40
1.0
 40
1.0
 10
6.022067496723459
 20
0.0000000000000018
 30
0.0
 10
6.022067496723459
 20
2.101294233289647
 30
0.0
 10
6.022067496723459
 20
4.202588466579293
 30
0.0
 10
6.022067496723459
 20
6.303882699868939
 30
0.0
 10
6.022067496723459
 20
6.38473132372215
 30
0.0
 10
6.049787024901704
 20
6.451720183486239
 30
0.0
 10
6.162975098296197
 20
6.564908256880734
 30
0.0
 10
6.229963958060289
 20
6.592627785058978
 30
0.0
 10
6.30850262123198
 20
6.592627785058978
 30
0.0
 10
7.465022935779817
 20
6.592627785058978
 30
0.0
 10
8.621543250327658
 20
6.592627785058978
 30
0.0
 10
9.778063564875495
 20
6.592627785058978
 30
0.0
  0
LINE
  5
16E
330
144
100
AcDbEntity
  8
Default
  6
Continuous
 62
     7
100
AcDbLine
 10
9.7780635649
 20
0.0
 30
0.0
 11
6.0220674967
 21
0.0
 31
0.0
  0
LINE
  5
16F
330
144
100
AcDbEntity
  8
Default
  6
Continuous
 62
     7
100
AcDbLine
 10
9.7780635649
 20
1.450655308
 30
0.0
 11
9.7780635649
 21
0.0
 31
0.0
  0
LINE
  5
170
330
144
100
AcDbEntity
  8
Default
  6
Continuous
 62
     7
100
AcDbLine
 10
7.731438401
 20
1.450655308
 30
0.0
 11
9.7780635649
 21
1.450655308
 31
0.0
  0
LINE
  5
171
330
144
100
AcDbEntity
  8
Default
  6
Continuous
 62
     7
100
AcDbLine
 10
7.731438401
 20
2.5848460026
 30
0.0
 11
7.731438401
 21
1.450655308
 31
0.0
  0
LINE
  5
172
330
144
100
AcDbEntity
  8
Default
  6
Continuous
 62
     7
100
AcDbLine
 10
9.6787352556
 20
2.5848460026
 30
0.0
 11
7.731438401
 21
2.5848460026
 31
0.0
  0
LINE
  5
173
330
144
100
AcDbEntity
  8
Default
  6
Continuous
 62
     7
100
AcDbLine
 10
9.6787352556
 20
4.0424311927
 30
0.0
 11
9.6787352556
 21
2.5848460026
 31
0.0
  0
LINE
  5
174
330
144
100
AcDbEntity
  8
Default
  6
Continuous
 62
     7
100
AcDbLine
 10
7.731438401
 20
4.0424311927
 30
0.0
 11
9.6787352556
 21
4.0424311927
 31
0.0
  0
LINE
  5
175
330
144
100
AcDbEntity
  8
Default
  6
Continuous
 62
     7
100
AcDbLine
 10
7.731438401
 20
5.1419724771
 30
0.0
 11
7.731438401
 21
4.0424311927
 31
0.0
  0
LINE
  5
176
330
144
100
AcDbEntity
  8
Default
  6
Continuous
 62
     7
100
AcDbLine
 10
9.7780635649
 20
5.1419724771
 30
0.0
 11
7.731438401
 21
5.1419724771
 31
0.0
  0
LINE
  5
177
330
144
100
AcDbEntity
  8
Default
  6
Continuous
 62
     7
100
AcDbLine
 10
9.7780635649
 20
6.5926277851
 30
0.0
 11
9.7780635649
 21
5.1419724771
 31
0.0
  0
LINE
  5
178
330
144
100
AcDbEntity
  8
Default
  6
Continuous
 62
     7
100
AcDbLine
 10
1.7093709043
 20
5.280570118
 30
0.0
 11
1.7093709043
 21
3.6312581913
 31
0.0
  0
LINE
  5
179
330
144
100
AcDbEntity
  8
Default
  6
Continuous
 62
     7
100
AcDbLine
 10
1.7093709043
 20
3.6312581913
 30
0.0
 11
1.8803079948
 21
3.6312581913
 31
0.0
  0
SPLINE
  5
17A
330
144
100
AcDbEntity
  8
Default
  6
Continuous
 62
     7
100
AcDbSpline
210
0.0
220
0.0
230
1.0
 70
     8
 71
     3
 72
    29
 73
    25
 74
     0
 42
0.0000000028633018
 43
0.0000000001
 12
1.0
 22
0.0
 32
0.0
 13
1.0
 23
0.0
 33
0.0
 40
0.0
 40
0.0
 40
0.0
 40
0.0
 40
0.1203556671631279
 40
0.1203556671631279
 40
0.1203556671631279
 40
0.2363519504887718
 40
0.2363519504887718
 40
0.2363519504887718
 40
0.3551316836966588
 40
0.3551316836966588
 40
0.4739114169045465
 40
0.4739114169045465
 40
0.5942337440501996
 40
0.5942337440501996
 40
0.7145560711958533
 40
0.7145560711958533
 40
0.7145560711958533
 40
0.8303426976884648
 40
0.8303426976884648
 40
0.8303426976884648
 40
0.9506957818555967
 40
0.9506957818555967
 40
0.9506957818555967
 40
1.0
 40
1.0
 40
1.0
 40
1.0
 10
1.880307994757537
 20
3.631258191349935
 30
0.0
 10
2.018905635648757
 20
3.631258191349935
 30
0.0
 10
2.157503276539977
 20
3.640498034076017
 30
0.0
 10
2.296100917431193
 20
3.661287680209699
 30
0.0
 10
2.436957688573287
 20
3.682416195881014
 30
0.0
 10
2.564056356487548
 20
3.719036697247708
 30
0.0
 10
2.679554390563567
 20
3.776785714285715
 30
0.0
 10
2.795976408912189
 20
3.834996723460025
 30
0.0
 10
2.889760812581915
 20
3.915383355176934
 30
0.0
 10
3.028358453473135
 20
4.132519659239843
 30
0.0
 10
3.063007863695937
 20
4.278047182175624
 30
0.0
 10
3.063007863695937
 20
4.636091087811272
 30
0.0
 10
3.028358453473135
 20
4.779308650065532
 30
0.0
 10
2.889760812581915
 20
4.996444954128441
 30
0.0
 10
2.797362385321101
 20
5.079603538663172
 30
0.0
 10
2.679554390563567
 20
5.13735255570118
 30
0.0
 10
2.564521785639126
 20
5.193741087526886
 30
0.0
 10
2.437008519003932
 20
5.229750982961993
 30
0.0
 10
2.296100917431193
 20
5.250540629095676
 30
0.0
 10
2.157454063805833
 20
5.270996722253517
 30
0.0
 10
2.018905635648757
 20
5.28057011795544
 30
0.0
 10
1.880307994757537
 20
5.28057011795544
 30
0.0
 10
1.823328964613371
 20
5.28057011795544
 30
0.0
 10
1.766349934469201
 20
5.28057011795544
 30
0.0
 10
1.709370904325031
 20
5.28057011795544
 30
0.0
  0
LINE
  5
17B
330
144
100
AcDbEntity
  8
Default
  6
Continuous
 62
     7
100
AcDbLine
 10
1.7093709043
 20
0.0
 30
0.0
 11
0.0
 21
0.0
 31
0.0
  0
LINE
  5
17C
330
144
100
AcDbEntity
  8
Default
  6
Continuous
 62
     7
100
AcDbLine
 10
1.7093709043
 20
2.5340268676
 30
0.0
 11
1.7093709043
 21
0.0
 31
0.0
  0
LINE
  5
17D
330
144
100
AcDbEntity
  8
Default
  6
Continuous
 62
     7
100
AcDbLine
 10
3.3402031455
 20
0.0
 30
0.0
 11
1.7093709043
 21
2.5340268676
 31
0.0
  0
LINE
  5
17E
330
144
100
AcDbEntity
  8
Default
  6
Continuous
 62
     7
100
AcDbLine
 10
5.4769167759
 20
0.0
 30
0.0
 11
3.3402031455
 21
0.0
 31
0.0
  0
LINE
  5
17F
330
144
100
AcDbEntity
  8
Default
  6
Continuous
 62
     7
100
AcDbLine
 10
3.4002621232
 20
2.7003440367
 30
0.0
 11
5.4769167759
 21
0.0
 31
0.0
  0
SPLINE
  5
180
330
144
100
AcDbEntity
  8
Default
  6
Continuous
 62
     7
100
AcDbSpline
210
0.0
220
0.0
230
1.0
 70
     8
 71
     3
 72
    39
 73
    35
 74
     0
 42
0.0000000006617465
 43
0.0000000001
 12
1.0
 22
0.0
 32
0.0
 13
1.0
 23
0.0
 33
0.0
 40
0.0
 40
0.0
 40
0.0
 40
0.0
 40
0.4184837171182216
 40
0.4184837171182216
 40
0.4184837171182216
 40
0.4329116956232541
 40
0.4329116956232541
 40
0.447940839899329
 40
0.447940839899329
 40
0.447940839899329
 40
0.5989875461512338
 40
0.5989875461512338
 40
0.5989875461512338
 40
0.65983019696195
 40
0.65983019696195
 40
0.65983019696195
 40
0.7141636694202442
 40
0.7141636694202442
 40
0.7141636694202442
 40
0.7672492360561214
 40
0.7672492360561214
 40
0.7672492360561214
 40
0.8311842098663922
 40
0.8311842098663922
 40
0.8732466926363075
 40
0.8732466926363075
 40
0.8732466926363075
 40
0.9147241024096695
 40
0.9147241024096695
 40
0.9147241024096695
 40
0.9560702513872078
 40
0.9560702513872078
 40
0.9560702513872078
 40
1.0
 40
1.0
 40
1.0
 40
1.0
 10
0.0
 20
0.0
 30
0.0
 10
0.0
 20
2.101294233289646
 30
0.0
 10
0.0
 20
4.202588466579293
 30
0.0
 10
0.0
 20
6.303882699868939
 30
0.0
 10
0.0
 20
6.38473132372215
 30
0.0
 10
0.0277195281782454
 20
6.451720183486239
 30
0.0
 10
0.1409076015727422
 20
6.564908256880734
 30
0.0
 10
0.2055865006553077
 20
6.592627785058978
 30
0.0
 10
0.2771952817824364
 20
6.592627785058978
 30
0.0
 10
1.035632372214941
 20
6.592627785058978
 30
0.0
 10
1.794069462647446
 20
6.592627785058977
 30
0.0
 10
2.552506553079947
 20
6.592627785058978
 30
0.0
 10
2.878211009174311
 20
6.592627785058978
 30
0.0
 10
3.180815858453474
 20
6.553358453473132
 30
0.0
 10
3.458011140235911
 20
6.472509829619922
 30
0.0
 10
3.736714364351247
 20
6.39122138925295
 30
0.0
 10
3.977752293577982
 20
6.271543250327655
 30
0.0
 10
4.18333879423329
 20
6.105226081258192
 30
0.0
 10
4.387795784926965
 20
5.939822673056568
 30
0.0
 10
4.550622542595022
 20
5.731012450851901
 30
0.0
 10
4.666120576671034
 20
5.476916775884666
 30
0.0
 10
4.782488801414747
 20
5.220906681448501
 30
0.0
 10
4.839367627785059
 20
4.917906290956751
 30
0.0
 10
4.839367627785059
 20
4.335796199213631
 30
0.0
 10
4.809338138925298
 20
4.116349934469202
 30
0.0
 10
4.744659239842726
 20
3.913073394495413
 30
0.0
 10
4.679525282839784
 20
3.708366672486163
 30
0.0
 10
4.589891874180864
 20
3.520380078636961
 30
0.0
 10
4.467463958060289
 20
3.356372870249018
 30
0.0
 10
4.343928732125118
 20
3.19088228456228
 30
0.0
 10
4.19488859764089
 20
3.049148099606816
 30
0.0
 10
4.014711664482306
 20
2.9336500655308
 30
0.0
 10
3.836171940175813
 20
2.819201524308691
 30
0.0
 10
3.631258191349932
 20
2.739613368283093
 30
0.0
 10
3.400262123197905
 20
2.700344036697248
 30
0.0
  0
HATCH
  5
181
330
144
100
AcDbEntity
  8
Default
  6
Continuous
 62
     7
100
AcDbHatch
 10
0.0
 20
0.0
 30
0.0
210
0.0
220
0.0
230
1.0
  2
SOLID
 70
     1
 71
     0
 91
        2
 92
        1
 93
        6
 72
     4
 94
        3
 73
     0
 74
     0
 95
       39
 96
       35
 40
0.0
 40
0.0
 40
0.0
 40
0.0
 40
0.0439297486127922
 40
0.0439297486127922
 40
0.0439297486127922
 40
0.0852758975903305
 40
0.0852758975903305
 40
0.0852758975903305
 40
0.1267533073636925
 40
0.1267533073636925
 40
0.1267533073636925
 40
0.1688157901336078
 40
0.1688157901336078
 40
0.2327507639438786
 40
0.2327507639438786
 40
0.2327507639438786
 40
0.2858363305797558
 40
0.2858363305797558
 40
0.2858363305797558
 40
0.34016980303805
 40
0.34016980303805
 40
0.34016980303805
 40
0.4010124538487662
 40
0.4010124538487662
 40
0.4010124538487662
 40
0.552059160100671
 40
0.552059160100671
 40
0.552059160100671
 40
0.5670883043767458
 40
0.5670883043767458
 40
0.5815162828817784
 40
0.5815162828817784
 40
0.5815162828817784
 40
1.0
 40
1.0
 40
1.0
 40
1.0
 10
3.400262123197905
 20
2.700344036697248
 10
3.631258191349932
 20
2.739613368283093
 10
3.836171940175813
 20
2.819201524308691
 10
4.014711664482306
 20
2.9336500655308
 10
4.19488859764089
 20
3.049148099606816
 10
4.343928732125118
 20
3.19088228456228
 10
4.467463958060289
 20
3.356372870249018
 10
4.589891874180864
 20
3.520380078636961
 10
4.679525282839784
 20
3.708366672486163
 10
4.744659239842726
 20
3.913073394495413
 10
4.809338138925298
 20
4.116349934469202
 10
4.839367627785059
 20
4.335796199213631
 10
4.839367627785059
 20
4.917906290956751
 10
4.782488801414747
 20
5.220906681448501
 10
4.666120576671034
 20
5.476916775884666
 10
4.550622542595022
 20
5.731012450851901
 10
4.387795784926965
 20
5.939822673056568
 10
4.18333879423329
 20
6.105226081258192
 10
3.977752293577982
 20
6.271543250327655
 10
3.736714364351247
 20
6.39122138925295
 10
3.458011140235911
 20
6.472509829619922
 10
3.180815858453474
 20
6.553358453473132
 10
2.878211009174311
 20
6.592627785058978
 10
2.552506553079947
 20
6.592627785058978
 10
1.794069462647446
 20
6.592627785058977
 10
1.035632372214941
 20
6.592627785058978
 10
0.2771952817824364
 20
6.592627785058978
 10
0.2055865006553077
 20
6.592627785058978
 10
0.1409076015727422
 20
6.564908256880734
 10
0.0277195281782454
 20
6.451720183486239
 10
0.0
 20
6.38473132372215
 10
0.0
 20
6.303882699868939
 10
0.0
 20
4.202588466579293
 10
0.0
 20
2.101294233289646
 10
0.0
 20
0.0
 72
     1
 10
0.0
 20
0.0
 11
1.709370904325033
 21
0.0000000000000009
 72
     1
 10
1.709370904325031
 20
0.0000000000000009
 11
1.709370904325031
 21
2.534026867627786
 72
     1
 10
1.709370904325031
 20
2.534026867627786
 11
3.340203145478373
 21
0.0000000000000004
 72
     1
 10
3.340203145478373
 20
0.0000000000000009
 11
5.476916775884664
 21
0.0000000000000009
 72
     1
 10
5.476916775884668
 20
0.0000000000000009
 11
3.400262123197905
 21
2.700344036697248
 97
        0
 92
        1
 93
        3
 72
     1
 10
1.709370904325031
 20
5.28057011795544
 11
1.709370904325031
 21
3.631258191349935
 72
     1
 10
1.709370904325031
 20
3.631258191349935
 11
1.880307994757535
 21
3.631258191349935
 72
     4
 94
        3
 73
     0
 74
     0
 95
       29
 96
       25
 40
0.0
 40
0.0
 40
0.0
 40
0.0
 40
0.120355667163128
 40
0.120355667163128
 40
0.120355667163128
 40
0.2363519504887718
 40
0.2363519504887718
 40
0.2363519504887718
 40
0.3551316836966587
 40
0.3551316836966587
 40
0.4739114169045465
 40
0.4739114169045465
 40
0.5942337440501996
 40
0.5942337440501996
 40
0.7145560711958533
 40
0.7145560711958533
 40
0.7145560711958533
 40
0.8303426976884648
 40
0.8303426976884648
 40
0.8303426976884648
 40
0.9506957818555967
 40
0.9506957818555967
 40
0.9506957818555967
 40
1.0
 40
1.0
 40
1.0
 40
1.0
 10
1.880307994757537
 20
3.631258191349935
 10
2.018905635648757
 20
3.631258191349935
 10
2.157503276539977
 20
3.640498034076017
 10
2.296100917431193
 20
3.661287680209699
 10
2.436957688573287
 20
3.682416195881014
 10
2.564056356487548
 20
3.719036697247708
 10
2.679554390563567
 20
3.776785714285715
 10
2.795976408912189
 20
3.834996723460025
 10
2.889760812581915
 20
3.915383355176934
 10
3.028358453473135
 20
4.132519659239843
 10
3.063007863695937
 20
4.278047182175624
 10
3.063007863695937
 20
4.636091087811272
 10
3.028358453473135
 20
4.779308650065532
 10
2.889760812581915
 20
4.996444954128441
 10
2.797362385321101
 20
5.079603538663172
 10
2.679554390563567
 20
5.13735255570118
 10
2.564521785639126
 20
5.193741087526886
 10
2.437008519003932
 20
5.229750982961993
 10
2.296100917431193
 20
5.250540629095676
 10
2.157454063805833
 20
5.270996722253517
 10
2.018905635648757
 20
5.28057011795544
 10
1.880307994757537
 20
5.28057011795544
 10
1.823328964613371
 20
5.28057011795544
 10
1.766349934469201
 20
5.28057011795544
 10
1.709370904325031
 20
5.28057011795544
 97
        0
 75
     0
 76
     1
 98
        0
  0
HATCH
  5
182
330
144
100
AcDbEntity
  8
Default
  6
Continuous
 62
     7
100
AcDbHatch
 10
0.0
 20
0.0
 30
0.0
210
0.0
220
0.0
230
1.0
  2
SOLID
 70
     1
 71
     0
 91
        1
 92
        1
 93
       11
 72
     4
 94
        3
 73
     0
 74
     0
 95
       16
 96
       12
 40
0.0
 40
0.0
 40
0.0
 40
0.0
 40
0.3392889644065707
 40
0.3392889644065707
 40
0.3392889644065707
 40
0.3618671566114537
 40
0.3618671566114537
 40
0.3835422211281416
 40
0.3835422211281416
 40
0.3835422211281416
 40
1.0
 40
1.0
 40
1.0
 40
1.0
 10
9.778063564875495
 20
6.592627785058978
 10
8.621543250327658
 20
6.592627785058978
 10
7.465022935779817
 20
6.592627785058978
 10
6.30850262123198
 20
6.592627785058978
 10
6.229963958060289
 20
6.592627785058978
 10
6.162975098296197
 20
6.564908256880734
 10
6.049787024901704
 20
6.451720183486239
 10
6.022067496723459
 20
6.38473132372215
 10
6.022067496723459
 20
6.303882699868939
 10
6.022067496723459
 20
4.202588466579293
 10
6.022067496723459
 20
2.101294233289647
 10
6.022067496723459
 20
0.0000000000000018
 72
     1
 10
6.022067496723459
 20
0.0000000000000018
 11
9.778063564875495
 21
0.0000000000000009
 72
     1
 10
9.778063564875495
 20
0.0000000000000009
 11
9.778063564875495
 21
1.450655307994759
 72
     1
 10
9.778063564875495
 20
1.450655307994758
 11
7.731438401048491
 21
1.450655307994758
 72
     1
 10
7.731438401048493
 20
1.450655307994758
 11
7.731438401048493
 21
2.584846002621233
 72
     1
 10
7.731438401048493
 20
2.584846002621233
 11
9.678735255570121
 21
2.584846002621233
 72
     1
 10
9.678735255570121
 20
2.584846002621233
 11
9.678735255570121
 21
4.042431192660551
 72
     1
 10
9.678735255570121
 20
4.042431192660551
 11
7.731438401048493
 21
4.042431192660551
 72
     1
 10
7.731438401048493
 20
4.042431192660551
 11
7.731438401048493
 21
5.141972477064221
 72
     1
 10
7.731438401048493
 20
5.141972477064221
 11
9.778063564875497
 21
5.141972477064221
 72
     1
 10
9.778063564875495
 20
5.141972477064221
 11
9.778063564875495
 21
6.592627785058978
 97
        0
 75
     0
 76
     1
 98
        0
  0
HATCH
  5
183
330
144
100
AcDbEntity
  8
Default
  6
Continuous
 62
     7
100
AcDbHatch
 10
0.0
 20
0.0
 30
0.0
210
0.0
220
0.0
230
1.0
  2
SOLID
 70
     1
 71
     0
 91
        1
 92
        1
 93
        6
 72
     4
 94
        3
 73
     0
 74
     0
 95
       51
 96
       47
 40
0.0
 40
0.0
 40
0.0
 40
0.0
 40
0.0903181127538991
 40
0.0903181127538991
 40
0.1806362255077987
 40
0.1806362255077987
 40
0.2505107113883491
 40
0.2505107113883491
 40
0.2505107113883491
 40
0.3153180737852943
 40
0.3153180737852943
 40
0.3153180737852943
 40
0.3800992723712822
 40
0.3800992723712822
 40
0.3800992723712822
 40
0.4521169206302595
 40
0.4521169206302595
 40
0.5213407808102242
 40
0.5213407808102242
 40
0.5213407808102242
 40
0.5850582814386294
 40
0.5850582814386294
 40
0.5850582814386294
 40
0.6488037906897904
 40
0.6488037906897904
 40
0.6488037906897904
 40
0.718817254308538
 40
0.718817254308538
 40
0.7944820288920282
 40
0.7944820288920282
 40
0.7944820288920282
 40
0.8697367480753329
 40
0.8697367480753329
 40
0.8697367480753329
 40
0.9013515779285247
 40
0.9013515779285247
 40
0.9013515779285247
 40
0.9306379885930884
 40
0.9306379885930884
 40
0.9599243992576518
 40
0.9599243992576518
 40
0.9599243992576518
 40
0.9904597959709778
 40
0.9904597959709778
 40
0.9904597959709778
 40
1.0
 40
1.0
 40
1.0
 40
1.0
 10
16.88350262123198
 20
4.945625819134994
 10
16.59937745740498
 20
5.56931520314548
 10
16.20206422018348
 20
6.033617300131063
 10
15.18106159895151
 20
6.643446920052426
 10
14.58740170380079
 20
6.795904325032767
 10
13.37467234600262
 20
6.795904325032767
 10
12.88849518360602
 20
6.715532627831713
 10
12.44837811271297
 20
6.544118610747052
 10
12.00948558322411
 20
6.373181520314549
 10
11.6318070432484
 20
6.134109113501288
 10
11.31880733944954
 20
5.823410878112714
 10
11.00465268676278
 20
5.511566186107471
 10
10.76010389980871
 20
5.138136765961434
 10
10.58885976408912
 20
4.700769986893841
 10
10.41792267365662
 20
4.264187418086501
 10
10.33245412844037
 20
3.776785714285715
 10
10.33245412844037
 20
2.725753604193972
 10
10.41673087643255
 20
2.251733670943243
 10
10.58885976408912
 20
1.822558977719529
 10
10.76210681520315
 20
1.39059633027523
 10
10.99887791762487
 20
1.022140102874894
 10
11.30725753604194
 20
0.7183977719528185
 10
11.61448230668415
 20
0.4157929226736576
 10
11.9860833240235
 20
0.1770875389365569
 10
12.41834862385321
 20
0.0092398427260818
 10
12.85262123197903
 20
-0.1593872870249009
 10
13.32847313237222
 20
-0.2425458715596323
 10
14.40029488859764
 20
-0.2425458715596323
 10
14.91226036066398
 20
-0.1389661078830131
 10
15.37971821756225
 20
0.06467889908257
 10
15.84633027522936
 20
0.2679554390563577
 10
16.23809819736261
 20
0.6029285876097794
 10
16.5670380078637
 20
1.057961992136305
 10
16.70563564875491
 20
1.249688728702491
 10
16.80988280520848
 20
1.442190804023907
 10
16.88350262123198
 20
1.633142201834863
 10
16.95742136304062
 20
1.824868938401049
 10
17.01055045871559
 20
2.021215596330276
 10
17.08446920052425
 20
2.41852883355177
 10
17.10526611434193
 20
2.619624777619178
 10
17.11680865006553
 20
2.825081913499345
 10
17.12835845347313
 20
3.030668414154654
 10
17.14221821756225
 20
3.243184796854522
 10
17.14221821756225
 20
3.460321100917432
 10
17.14221821756225
 20
3.526539973787681
 10
17.14221821756225
 20
3.59275884665793
 10
17.14221821756225
 20
3.658977719528179
 72
     1
 10
17.14221821756225
 20
3.658977719528179
 11
13.83435452162517
 21
3.658977719528179
 72
     1
 10
13.83435452162517
 20
3.658977719528179
 11
13.83435452162517
 21
2.314580602883356
 72
     1
 10
13.83435452162517
 20
2.314580602883356
 11
15.33351900393184
 21
2.314580602883356
 72
     4
 94
        3
 73
     0
 74
     0
 95
       43
 96
       39
 40
0.0
 40
0.0
 40
0.0
 40
0.0
 40
0.0528407008768927
 40
0.0528407008768927
 40
0.0528407008768927
 40
0.101808017531148
 40
0.101808017531148
 40
0.101808017531148
 40
0.1527424680033737
 40
0.1527424680033737
 40
0.1527424680033737
 40
0.2046872249080309
 40
0.2046872249080309
 40
0.285201598110253
 40
0.285201598110253
 40
0.285201598110253
 40
0.3575698737778739
 40
0.3575698737778739
 40
0.3575698737778739
 40
0.4340109897737078
 40
0.4340109897737078
 40
0.5104521057695417
 40
0.5104521057695417
 40
0.5848456918726302
 40
0.5848456918726302
 40
0.5848456918726302
 40
0.6593973023253275
 40
0.6593973023253275
 40
0.6593973023253275
 40
0.7322081321972964
 40
0.7322081321972964
 40
0.7322081321972964
 40
0.808821291350857
 40
0.808821291350857
 40
0.9050626152462398
 40
0.9050626152462398
 40
0.9050626152462398
 40
1.0
 40
1.0
 40
1.0
 40
1.0
 10
15.33351900393184
 20
2.314580602883356
 10
15.31503931847969
 20
2.12285386631717
 10
15.26256022686942
 20
1.956138307659666
 10
15.17644167758847
 20
1.815629095674968
 10
15.08866317169069
 20
1.672411533420708
 10
14.98086470130555
 20
1.551204760042966
 10
14.84842726081258
 20
1.457585190039319
 10
14.7144495412844
 20
1.362876802096987
 10
14.5615512434976
 20
1.290461103946714
 10
14.39105504587156
 20
1.240448885976409
 10
14.21780799475754
 20
1.189629750982963
 10
14.03994102228047
 20
1.16653014416776
 10
13.56870904325033
 20
1.16653014416776
 10
13.32020716906946
 20
1.226055058977723
 10
13.10440694626475
 20
1.344397116644824
 10
12.88958060288335
 20
1.46220511140236
 10
12.7105124508519
 20
1.620114023591089
 10
12.56387614678899
 20
1.815629095674968
 10
12.41834862385321
 20
2.009665792922674
 10
12.30747051114023
 20
2.231422018348625
 10
12.15501310615989
 20
2.721133682830931
 10
12.11574377457405
 20
2.970609436435126
 10
12.11574377457405
 20
3.481110747051115
 10
12.15421681189757
 20
3.730147961786198
 10
12.22662188728703
 20
3.980062254259503
 10
12.29823066841416
 20
4.227228047182176
 10
12.40527884987617
 20
4.450080065344236
 10
12.54770642201835
 20
4.647640891218874
 10
12.69092398427261
 20
4.84629750982962
 10
12.86823374940279
 20
5.008983012075785
 10
13.08361730013106
 20
5.13042267365662
 10
13.30075360419397
 20
5.252850589777196
 10
13.54560943643512
 20
5.312909567496725
 10
14.17622870249017
 20
5.312909567496725
 10
14.47167626156505
 20
5.217916234390401
 10
14.7144495412844
 20
5.024164482306685
 10
14.95468545216252
 20
4.832437745740499
 10
15.1348623853211
 20
4.578342070773264
 10
15.25498034076016
 20
4.25956749672346
 72
     1
 10
15.25498034076016
 20
4.25956749672346
 11
16.88350262123198
 21
4.945625819134994
 97
        0
 75
     0
 76
     1
 98
        0
  0
HATCH
  5
184
330
144
100
AcDbEntity
  8
Default
  6
Continuous
 62
     7
100
AcDbHatch
 10
0.0
 20
0.0
 30
0.0
210
0.0
220
0.0
230
1.0
  2
SOLID
 70
     1
 71
     0
 91
        2
 92
        1
 93
        1
 72
     4
 94
        3
 73
     0
 74
     0
 95
       49
 96
       45
 40
0.0
 40
0.0
 40
0.0
 40
0.0
 40
0.0620905351842325
 40
0.0620905351842325
 40
0.0620905351842325
 40
0.1225274789213882
 40
0.1225274789213882
 40
0.1225274789213882
 40
0.1824107500595676
 40
0.1824107500595676
 40
0.1824107500595676
 40
0.2443092731117129
 40
0.2443092731117129
 40
0.3113899980938052
 40
0.3113899980938052
 40
0.3113899980938052
 40
0.373038281101099
 40
0.373038281101099
 40
0.4342493422430935
 40
0.4342493422430935
 40
0.4342493422430935
 40
0.5005101029271146
 40
0.5005101029271146
 40
0.5664827733472912
 40
0.5664827733472912
 40
0.5664827733472912
 40
0.6277456785228048
 40
0.6277456785228048
 40
0.6277456785228048
 40
0.6890483024008142
 40
0.6890483024008142
 40
0.6890483024008142
 40
0.7561017319004357
 40
0.7561017319004357
 40
0.8179750681339922
 40
0.8179750681339922
 40
0.8179750681339922
 40
0.8779262347345869
 40
0.8779262347345869
 40
0.8779262347345869
 40
0.9382003516792404
 40
0.9382003516792404
 40
0.9382003516792404
 40
1.0
 40
1.0
 40
1.0
 40
1.0
 10
21.44336500655308
 20
6.83055373525557
 10
20.96520314547837
 20
6.82824377457405
 10
20.50677543450266
 20
6.747870526797538
 10
20.06662844036697
 20
6.581077981651377
 10
19.62773591087812
 20
6.414760812581914
 10
19.23849979910015
 20
6.18016634116182
 10
18.90009829619921
 20
5.878849934469201
 10
18.56284403669725
 20
5.57855504587156
 10
18.2953544565906
 20
5.21684411217912
 10
18.0916120576671
 20
4.800098296199214
 10
17.88833551769332
 20
4.384305373525557
 10
17.78669724770642
 20
3.926933158584535
 10
17.78669724770642
 20
2.892070773263434
 10
17.87990551563201
 20
2.402690597965156
 10
18.06158256880734
 20
1.958846657929228
 10
18.24406946264745
 20
1.513024246395807
 10
18.49585517693316
 20
1.129570773263435
 10
19.14495412844037
 20
0.4804718217562263
 10
19.53023971314575
 20
0.2274883817829441
 10
19.9788499344692
 20
0.0485091743119273
 10
20.42467234600262
 20
-0.1293577981651364
 10
20.91207404980341
 20
-0.2194462647444295
 10
21.97234600262123
 20
-0.2194462647444295
 10
22.46253572118054
 20
-0.1305468044592142
 10
22.90788007863696
 20
0.0485091743119273
 10
23.3560124508519
 20
0.2286861074705122
 10
23.7406207864759
 20
0.4793333402928437
 10
24.06055045871559
 20
0.8038663171690699
 10
24.38163499344692
 20
1.129570773263435
 10
24.63260786737497
 20
1.513358696334639
 10
24.81590760157274
 20
1.958846657929228
 10
24.99839449541284
 20
2.402359108781128
 10
25.08848296199213
 20
2.892070773263434
 10
25.08848296199213
 20
3.926933158584535
 10
24.9863762849025
 20
4.38296991497732
 10
24.78587811271298
 20
4.800098296199214
 10
24.58491153342071
 20
5.218201179554391
 10
24.31246764930903
 20
5.576127116722139
 10
23.97508191349934
 20
5.878849934469201
 10
23.63782765399738
 20
6.181454783748363
 10
23.25051470703607
 20
6.416785102496653
 10
22.81317169069462
 20
6.581077981651377
 10
22.37658912188729
 20
6.745085190039319
 10
21.91919464291449
 20
6.832852429151036
 10
21.44336500655308
 20
6.83055373525557
 97
        0
 92
        1
 93
        1
 72
     4
 94
        3
 73
     0
 74
     0
 95
       47
 96
       43
 40
0.0
 40
0.0
 40
0.0
 40
0.0
 40
0.0637917384076936
 40
0.0637917384076936
 40
0.0637917384076936
 40
0.1265834997779105
 40
0.1265834997779105
 40
0.1893752611481285
 40
0.1893752611481285
 40
0.1893752611481285
 40
0.2604081010642026
 40
0.2604081010642026
 40
0.3159741129340349
 40
0.3159741129340349
 40
0.3159741129340349
 40
0.3751091105868485
 40
0.3751091105868485
 40
0.3751091105868485
 40
0.435995169879425
 40
0.435995169879425
 40
0.435995169879425
 40
0.4997689343159712
 40
0.4997689343159712
 40
0.5635426987525196
 40
0.5635426987525196
 40
0.5635426987525196
 40
0.624232315369434
 40
0.624232315369434
 40
0.624232315369434
 40
0.6835869381889372
 40
0.6835869381889372
 40
0.6835869381889372
 40
0.7357943705008892
 40
0.7357943705008892
 40
0.8025337685079206
 40
0.8025337685079206
 40
0.8692731665149518
 40
0.8692731665149518
 40
0.9360125645219831
 40
0.9360125645219831
 40
0.9360125645219831
 40
1.0
 40
1.0
 40
1.0
 40
1.0
 10
21.44336500655308
 20
1.450655307994758
 10
21.70208060288335
 20
1.450655307994758
 10
21.94462647444299
 20
1.501474442988205
 10
22.16869266055046
 20
1.600802752293579
 10
22.39468942225328
 20
1.700986883770089
 10
22.5937254259502
 20
1.836418741808651
 10
22.93097968545217
 20
2.187532765399738
 10
23.06495740498034
 20
2.395429226736567
 10
23.15966579292267
 20
2.63335517693316
 10
23.25469013236262
 20
2.87207485894082
 10
23.30519331585845
 20
3.132306684141548
 10
23.30519331585845
 20
3.642807994757537
 10
23.25668414154652
 20
3.862254259501967
 10
23.15966579292267
 20
4.074770642201835
 10
23.06391850987524
 20
4.284502786020031
 10
22.93097968545217
 20
4.472083879423329
 10
22.76235255570118
 20
4.636091087811272
 10
22.59487996078263
 20
4.798975392458079
 10
22.39506880733945
 20
4.927146133682831
 10
22.16869266055046
 20
5.021854521625164
 10
21.94345992894685
 20
5.116084541989939
 10
21.70208060288335
 20
5.167382044560944
 10
21.18464941022281
 20
5.167382044560944
 10
20.94210353866317
 20
5.118872870249017
 10
20.71572739187418
 20
5.021854521625164
 10
20.49213912866634
 20
4.926030980250372
 10
20.29300458715597
 20
4.797788335517694
 10
20.12437745740498
 20
4.636091087811272
 10
19.95459636352431
 20
4.473287299158574
 10
19.82177260812581
 20
4.284977064220183
 10
19.72244429882045
 20
4.074770642201835
 10
19.62222370164274
 20
3.86267589003505
 10
19.57229685452162
 20
3.642807994757537
 10
19.57229685452162
 20
3.132306684141548
 10
19.62311598951508
 20
2.871281127129752
 10
19.82177260812581
 20
2.395429226736567
 10
19.95575032765399
 20
2.187532765399738
 10
20.29300458715597
 20
1.836418741808651
 10
20.49166120576671
 20
1.700131061598952
 10
20.71572739187418
 20
1.600802752293579
 10
20.941724153577
 20
1.500618620817073
 10
21.18464941022281
 20
1.450655307994758
 10
21.44336500655308
 20
1.450655307994758
 97
        0
 75
     0
 76
     1
 98
        0
  0
HATCH
  5
185
330
144
100
AcDbEntity
  8
Default
  6
Continuous
 62
     7
100
AcDbHatch
 10
0.0
 20
0.0
 30
0.0
210
0.0
220
0.0
230
1.0
  2
SOLID
 70
     1
 71
     0
 91
        1
 92
        1
 93
        4
 72
     1
 10
28.07064220183486
 20
2.584846002621233
 11
28.07064220183486
 21
4.042431192660551
 72
     1
 10
28.07064220183486
 20
4.042431192660551
 11
25.93623853211009
 21
4.042431192660551
 72
     1
 10
25.93623853211009
 20
4.042431192660551
 11
25.93623853211009
 21
2.584846002621233
 72
     1
 10
25.93623853211009
 20
2.584846002621233
 11
28.07064220183486
 21
2.584846002621233
 97
        0
 75
     0
 76
     1
 98
        0
  0
HATCH
  5
186
330
144
100
AcDbEntity
  8
Default
  6
Continuous
 62
     7
100
AcDbHatch
 10
0.0
 20
0.0
 30
0.0
210
0.0
220
0.0
230
1.0
  2
SOLID
 70
     1
 71
     0
 91
        1
 92
        1
 93
        9
 72
     4
 94
        3
 73
     0
 74
     0
 95
       16
 96
       12
 40
0.0
 40
0.0
 40
0.0
 40
0.0
 40
0.3396620468027166
 40
0.3396620468027166
 40
0.3396620468027166
 40
0.3623316833330921
 40
0.3623316833330921
 40
0.3840945344022499
 40
0.3840945344022499
 40
0.3840945344022499
 40
1.0
 40
1.0
 40
1.0
 40
1.0
 10
32.58661533420707
 20
6.592627785058978
 10
31.42778505897771
 20
6.592627785058978
 10
30.26895478374836
 20
6.592627785058978
 10
29.110124508519
 20
6.592627785058978
 10
29.02927588466579
 20
6.592627785058978
 10
28.96228702490171
 20
6.564908256880734
 10
28.84909895150721
 20
6.451720183486239
 10
28.82137942332896
 20
6.38473132372215
 10
28.82137942332896
 20
6.303882699868939
 10
28.82137942332896
 20
4.202588466579293
 10
28.82137942332896
 20
2.101294233289646
 10
28.82137942332896
 20
0.0
 72
     1
 10
28.82137942332896
 20
0.0
 11
30.53999017038007
 21
0.0000000000000009
 72
     1
 10
30.53999017038007
 20
0.0000000000000009
 11
30.53999017038007
 21
2.584846002621234
 72
     1
 10
30.53999017038007
 20
2.584846002621234
 11
32.4872870249017
 21
2.584846002621233
 72
     1
 10
32.4872870249017
 20
2.584846002621233
 11
32.4872870249017
 21
4.042431192660551
 72
     1
 10
32.4872870249017
 20
4.042431192660551
 11
30.53999017038007
 21
4.042431192660551
 72
     1
 10
30.53999017038007
 20
4.042431192660551
 11
30.53999017038007
 21
5.141972477064221
 72
     1
 10
30.53999017038007
 20
5.141972477064221
 11
32.58661533420707
 21
5.141972477064221
 72
     1
 10
32.58661533420707
 20
5.141972477064221
 11
32.58661533420707
 21
6.592627785058978
 97
        0
 75
     0
 76
     1
 98
        0
  0
HATCH
  5
187
330
144
100
AcDbEntity
  8
Default
  6
Continuous
 62
     7
100
AcDbHatch
 10
0.0
 20
0.0
 30
0.0
210
0.0
220
0.0
230
1.0
  2
SOLID
 70
     1
 71
     0
 91
        1
 92
        1
 93
        4
 72
     4
 94
        3
 73
     0
 74
     0
 95
       14
 96
       10
 40
0.0
 40
0.0
 40
0.0
 40
0.0
 40
0.7580098693161609
 40
0.7580098693161609
 40
0.7580098693161609
 40
0.8789822868889446
 40
0.8789822868889446
 40
0.8789822868889446
 40
1.0
 40
1.0
 40
1.0
 40
1.0
 10
35.18532110091743
 20
6.608797509829621
 10
34.71100917431193
 20
6.608797509829621
 10
34.23669724770642
 20
6.608797509829621
 10
33.76238532110091
 20
6.608797509829621
 10
33.68153669724771
 20
6.608797509829621
 10
33.61680971405436
 20
6.578721860223512
 10
33.55910878112713
 20
6.523328964613368
 10
33.50135976408912
 20
6.467889908256881
 10
33.47364023591088
 20
6.400901048492791
 10
33.47364023591088
 20
6.320052424639582
 72
     1
 10
33.47364023591088
 20
6.320052424639582
 11
33.47364023591088
 21
0.0000000000000009
 72
     1
 10
33.47364023591088
 20
0.0000000000000009
 11
35.18532110091743
 21
0.0000000000000009
 72
     1
 10
35.18532110091743
 20
0.0000000000000009
 11
35.18532110091743
 21
6.608797509829621
 97
        0
 75
     0
 76
     1
 98
        0
  0
HATCH
  5
188
330
144
100
AcDbEntity
  8
Default
  6
Continuous
 62
     7
100
AcDbHatch
 10
0.0
 20
0.0
 30
0.0
210
0.0
220
0.0
230
1.0
  2
SOLID
 70
     1
 71
     0
 91
        1
 92
        1
 93
       12
 72
     1
 10
39.22313237221493
 20
4.885566841415466
 11
38.20905963302751
 21
6.592627785058978
 72
     1
 10
38.20905963302752
 20
6.592627785058978
 11
36.10468545216251
 21
6.592627785058978
 72
     1
 10
36.10468545216251
 20
6.592627785058978
 11
38.20905963302751
 21
3.525
 72
     1
 10
38.20905963302752
 20
3.525000000000001
 11
35.62652359108781
 21
0.0000000000000013
 72
     1
 10
35.6265235910878
 20
0.0000000000000009
 11
37.70317824377457
 21
0.0000000000000009
 72
     1
 10
37.70317824377457
 20
0.0000000000000009
 11
39.22313237221493
 21
2.145953473132373
 72
     1
 10
39.22313237221493
 20
2.145953473132373
 11
40.25568479685452
 21
0.5266710353866326
 72
     1
 10
40.25568479685452
 20
0.5266710353866322
 11
41.28823722149409
 21
1.995806028833553
 72
     1
 10
41.28823722149409
 20
1.995806028833553
 11
40.22565530799475
 21
3.525000000000001
 72
     1
 10
40.22565530799475
 20
3.525000000000001
 11
42.34157929226736
 21
6.592627785058978
 72
     1
 10
42.34157929226736
 20
6.592627785058978
 11
40.22565530799475
 21
6.592627785058978
 72
     1
 10
40.22565530799475
 20
6.592627785058978
 11
39.22313237221493
 21
4.885566841415466
 97
        0
 75
     0
 76
     1
 98
        0
  0
HATCH
  5
189
330
144
100
AcDbEntity
  8
Default
  6
Continuous
 62
     7
100
AcDbHatch
 10
0.0
 20
0.0
 30
0.0
210
0.0
220
0.0
230
1.0
  2
SOLID
 70
     1
 71
     0
 91
        1
 92
        1
 93
        3
 72
     4
 94
        3
 73
     0
 74
     0
 95
       13
 96
        9
 40
0.0
 40
0.0
 40
0.0
 40
0.0
 40
0.0445094381088423
 40
0.0445094381088423
 40
0.0908355879772283
 40
0.0908355879772283
 40
0.0908355879772283
 40
1.0
 40
1.0
 40
1.0
 40
1.0
 10
45.71181192660551
 20
6.414760812581914
 10
45.61941349934469
 20
6.53256880733945
 10
45.51546526867628
 20
6.592627785058978
 10
45.28446920052424
 20
6.592627785058978
 10
45.18660375034128
 20
6.531537694833034
 10
45.10429226736566
 20
6.414760812581914
 10
43.69752621231979
 20
4.418954783748362
 10
42.29076015727392
 20
2.423148754914811
 10
40.88399410222804
 20
0.427342726081259
 72
     4
 94
        3
 73
     0
 74
     0
 95
       11
 96
        7
 40
0.0
 40
0.0
 40
0.0
 40
0.0
 40
0.3439066424360135
 40
0.3439066424360135
 40
0.3439066424360135
 40
1.0
 40
1.0
 40
1.0
 40
1.0
 10
40.88399410222804
 20
0.427342726081259
 10
40.83086500655307
 20
0.3418741808650076
 10
40.80230295367286
 20
0.2725253209688669
 10
40.80314547837483
 20
0.2194462647444313
 10
40.80545543905635
 20
0.0739187418086509
 10
40.90709370904325
 20
0.0000000000000009
 10
41.11268020969855
 20
0.0000000000000009
 72
     4
 94
        3
 73
     0
 74
     0
 95
       16
 96
       12
 40
0.0
 40
0.0
 40
0.0
 40
0.0
 40
0.5188870924081099
 40
0.5188870924081099
 40
0.5188870924081099
 40
0.544909989588877
 40
0.544909989588877
 40
0.5581347406151689
 40
0.5581347406151689
 40
0.5581347406151689
 40
1.0
 40
1.0
 40
1.0
 40
1.0
 10
41.11268020969855
 20
0.0000000000000009
 10
43.98011140235911
 20
0.0000000000000009
 10
46.84754259501965
 20
0.0000000000000009
 10
49.71497378768021
 20
0.0000000000000009
 10
49.91363040629096
 20
0.0000000000000009
 10
50.01295871559633
 20
0.0692988204456104
 10
50.01295871559633
 20
0.281815203145479
 10
49.98455330475264
 20
0.352940532254955
 10
49.93211009174313
 20
0.427342726081259
 10
48.52534403669725
 20
2.42314875491481
 10
47.11857798165137
 20
4.418954783748362
 10
45.71181192660551
 20
6.414760812581914
 97
        0
 75
     0
 76
     1
 98
        0
  0
ENDBLK
  5
18B
330
144
100
AcDbEntity
  8
0
100
AcDbBlockEnd
  0
BLOCK
  5
195
330
18C
100
AcDbEntity
  8
0
100
AcDbBlockBegin
  2
RF-Massblatt_2016
 70
     0
 10
0.0
 20
0.0
 30
0.0
  3
RF-Massblatt_2016
  1

  0
MTEXT
  5
18D
102
{ACAD_XDICTIONARY
360
19F
102
}
330
18C
100
AcDbEntity
  8
Default
100
AcDbMText
 10
15.2206856049
 20
34.8070876502
 30
0.0
 40
2.5
 41
48.9706096033
 71
     1
 72
     1
  3
{\fVectora Com 45 Light|b1||i0||c0|p34;\C7;\H2.5;\W1.;REGO-FIX AG\P}{\fVectora Com 45 Light|b0||i0||c0|p34;\C7;\H2.5;\W1.;Obermattweg 60\P}{\fVectora Com 45 Light|b0||i0||c0|p34;\C7;\H2.5;\W1.;4456 Tenniken / Switzerland\P}{\fVectora Com 45 Light|b0
  3
||i0||c0|p34;\C7;\H2.5;\W1.;\P}{\fVectora Com 45 Light|b0||i0||c0|p34;\C7;\H2.5;\W1.;P +41 61 976 14 66\P}{\fVectora Com 45 Light|b0||i0||c0|p34;\C7;\H2.5;\W1.;F +41 61 976 14 14\P}{\fVectora Com 45 Light|b1||i0||c0|p34;\C7;\H2.5;\W1.;www.rego-fix.c
  1
om}
 73
     1
 44
1.0
1001
ACAD
1000
ACAD_MTEXT_DEFINED_HEIGHT_BEGIN
1070
    46
1040
31.3191355437
1000
ACAD_MTEXT_DEFINED_HEIGHT_END
  0
MTEXT
  5
18E
102
{ACAD_XDICTIONARY
360
1A1
102
}
330
18C
100
AcDbEntity
  8
Default
100
AcDbMText
 10
90.3836341545
 20
34.4892285804
 30
0.0
 40
2.5
 41
104.0282149141
 71
     1
 72
     1
  3
{\fSolid Edge ISO|b0||i0||c0|p34;\C7;\H2.;\W1.;This is a non-controlled copy. All information given herein is subject to change without notice\P}{\fSolid Edge ISO|b0||i0||c0|p34;\C7;\H2.;\W1.;\P}{\fSolid Edge ISO|b0||i0||c0|p34;\C7;\H2.;\W1.;The inf
  3
ormation given herein has been carefully checked and is believed to be correct. REGO-FIX,\P}{\fSolid Edge ISO|b0||i0||c0|p34;\C7;\H2.;\W1.;however, assumes no responsibility or liability for any errors, inaccuracies or omissions that may appear\P}{\
  3
fSolid Edge ISO|b0||i0||c0|p34;\C7;\H2.;\W1.;in this drawing\P}{\fSolid Edge ISO|b0||i0||c0|p34;\C7;\H2.;\W1.;\P}{\fSolid Edge ISO|b0||i0||c0|p34;\C7;\H2.;\W1.;This document is subject to copyright laws. No part of this document may be reproduced or
  3
 transmitted\P}{\fSolid Edge ISO|b0||i0||c0|p34;\C7;\H2.;\W1.;in any form or any means, electronic or mechanic, for any purpose, without the express written permission\P}{\fSolid Edge ISO|b0||i0||c0|p34;\C7;\H2.;\W1.;of REGO-FIX\P}{\fSolid Edge ISO|
  1
b0||i0||c0|p34;\C7;\H1.5;\W1.;\P}
 73
     1
 44
1.0
1001
ACAD
1000
ACAD_MTEXT_DEFINED_HEIGHT_BEGIN
1070
    46
1040
38.4545554545
1000
ACAD_MTEXT_DEFINED_HEIGHT_END
  0
INSERT
  5
18F
330
18C
100
AcDbEntity
  8
Default
100
AcDbBlockReference
  2
SEANNOT_GROUP
 10
0.0
 20
0.0
 30
0.0
  0
INSERT
  5
190
330
18C
100
AcDbEntity
  8
Default
100
AcDbBlockReference
  2
SEANNOT_GROUP1
 10
0.0
 20
0.0
 30
0.0
  0
MTEXT
  5
191
102
{ACAD_XDICTIONARY
360
1A3
102
}
330
18C
100
AcDbEntity
  8
Default
100
AcDbMText
 10
219.0323311835
 20
34.8066733186
 30
0.0
 40
2.5
 41
20.1335141444
 71
     1
 72
     1
  3
{\fVectora Com 45 Light|b0||i0||c0|p34;\C7;\H3.5;\W1.;Type :\P}{\fVectora Com 45 Light|b0||i0||c0|p34;\C7;\H3.5;\W1.;Part No. :\P}{\fVectora Com 45 Light|b0||i0||c0|p34;\C7;\H3.5;\W1.;Date : \P}{\fVectora Com 45 Light|b0||i0||c0|p34;\C7;\H3.5;\W1.;S
  1
cale :}
 73
     1
 44
1.0
1001
ACAD
1000
ACAD_MTEXT_DEFINED_HEIGHT_BEGIN
1070
    46
1040
23.6666666667
1000
ACAD_MTEXT_DEFINED_HEIGHT_END
  0
INSERT
  5
192
330
18C
100
AcDbEntity
  8
Default
100
AcDbBlockReference
  2
SEANNOT_GROUP2
 10
0.0
 20
0.0
 30
0.0
  0
INSERT
  5
193
330
18C
100
AcDbEntity
  8
Default
100
AcDbBlockReference
  2
SEANNOT_GROUP3
 10
0.0
 20
0.0
 30
0.0
  0
INSERT
  5
194
330
18C
100
AcDbEntity
  8
Default
 62
     7
100
AcDbBlockReference
  2
Block1
 10
227.000440997
 20
183.1186606679
 30
0.0
  0
ENDBLK
  5
196
330
18C
100
AcDbEntity
  8
0
100
AcDbBlockEnd
  0
ENDSEC
  0
SECTION
  2
ENTITIES
  0
INSERT
  5
41
330
1F
100
AcDbEntity
  8
Default
100
AcDbBlockReference
  2
SE
 10
0.0
 20
0.0
 30
0.0
  0
INSERT
  5
10C
330
1F
100
AcDbEntity
  8
Default
100
AcDbBlockReference
  2
SE1
 10
0.0
 20
0.0
 30
0.0
  0
INSERT
  5
114
330
1F
100
AcDbEntity
  8
Default
100
AcDbBlockReference
  2
GDimGGroup
 10
0.0
 20
0.0
 30
0.0
  0
INSERT
  5
11F
330
1F
100
AcDbEntity
  8
Default
100
AcDbBlockReference
  2
GDimGGroup1
 10
0.0
 20
0.0
 30
0.0
  0
INSERT
  5
129
330
1F
100
AcDbEntity
  8
Default
100
AcDbBlockReference
  2
GDimGGroup2
 10
0.0
 20
0.0
 30
0.0
  0
INSERT
  5
197
330
1F
100
AcDbEntity
  8
Default
 62
     7
100
AcDbBlockReference
  2
RF-Massblatt_2016
 10
0.0
 20
0.0
 30
0.0
  0
ENDSEC
  0
SECTION
  2
OBJECTS
  0
DICTIONARY
  5
C
330
0
100
AcDbDictionary
281
     1
  3
ACAD_GROUP
350
D
  3
ACAD_LAYOUT
350
1A
  3
ACAD_MATERIAL
350
3B
  3
ACAD_MLEADERSTYLE
350
19A
  3
ACAD_MLINESTYLE
350
17
  3
ACAD_PLOTSETTINGS
350
19
  3
ACAD_PLOTSTYLENAME
350
E
  3
ACAD_VISUALSTYLE
350
2A
  3
AcDbVariableDictionary
350
198
  0
DICTIONARY
  5
19F
330
18D
100
AcDbDictionary
280
     1
281
     1
  3
ACAD_MTEXT_RT
360
1A0
  0
DICTIONARY
  5
1A1
330
18E
100
AcDbDictionary
280
     1
281
     1
  3
ACAD_MTEXT_RT
360
1A2
  0
DICTIONARY
  5
1A3
330
191
100
AcDbDictionary
280
     1
281
     1
  3
ACAD_MTEXT_RT
360
1A4
  0
DICTIONARY
  5
D
102
{ACAD_REACTORS
330
C
102
}
330
C
100
AcDbDictionary
281
     1
  0
DICTIONARY
  5
1A
102
{ACAD_REACTORS
330
C
102
}
330
C
100
AcDbDictionary
281
     1
  3
Layout1
350
1E
  3
Model
350
22
  0
DICTIONARY
  5
3B
102
{ACAD_REACTORS
330
C
102
}
330
C
100
AcDbDictionary
281
     1
  3
ByBlock
350
3D
  3
ByLayer
350
3C
  3
Global
350
3E
  0
DICTIONARY
  5
19A
102
{ACAD_REACTORS
330
C
102
}
330
C
100
AcDbDictionary
281
     1
  0
DICTIONARY
  5
17
102
{ACAD_REACTORS
330
C
102
}
330
C
100
AcDbDictionary
281
     1
  3
Standard
350
18
  0
DICTIONARY
  5
19
102
{ACAD_REACTORS
330
C
102
}
330
C
100
AcDbDictionary
281
     1
  0
ACDBDICTIONARYWDFLT
  5
E
102
{ACAD_REACTORS
330
C
102
}
330
C
100
AcDbDictionary
281
     1
  3
Normal
350
F
100
AcDbDictionaryWithDefault
340
F
  0
DICTIONARY
  5
2A
102
{ACAD_REACTORS
330
C
102
}
330
C
100
AcDbDictionary
281
     1
  3
2dWireframe
350
2F
  3
3D Hidden
350
31
  3
3dWireframe
350
30
  3
Basic
350
32
  3
Brighten
350
36
  3
ColorChange
350
3A
  3
Conceptual
350
34
  3
Dim
350
35
  3
Facepattern
350
39
  3
Flat
350
2B
  3
FlatWithEdges
350
2C
  3
Gouraud
350
2D
  3
GouraudWithEdges
350
2E
  3
Linepattern
350
38
  3
Realistic
350
33
  3
Thicken
350
37
  0
DICTIONARY
  5
198
102
{ACAD_REACTORS
330
C
102
}
330
C
100
AcDbDictionary
281
     1
  3
DIMASSOC
350
19D
  3
HIDETEXT
350
19E
  3
PSOLHEIGHT
350
19C
  3
PSOLWIDTH
350
19B
  0
XRECORD
  5
1A0
102
{ACAD_REACTORS
330
19F
102
}
330
19F
100
AcDbXrecord
280
     1
 40
10118767.0
  1
\pxsm1.;{\fVectora Com 45 Light|b1||i0||c0|p34;\C7;\H2.5;\W1.;REGO-FIX AG\P}{\fVectora Com 45 Light|b0||i0||c0|p34;\C7;\H2.5;\W1.;Obermattweg 60\P}{\fVectora Com 45 Light|b0||i0||c0|p34;\C7;\H2.5;\W1.;4456 Tenniken / Switzerland\P}{\fVectora Com 45 L
  1
ight|b0||i0||c0|p34;\C7;\H2.5;\W1.;\P}{\fVectora Com 45 Light|b0||i0||c0|p34;\C7;\H2.5;\W1.;P +41 61 976 14 66\P}{\fVectora Com 45 Light|b0||i0||c0|p34;\C7;\H2.5;\W1.;F +41 61 976 14 14\P}{\fVectora Com 45 Light|b1||i0||c0|p34;\C7;\H2.5;\W1.;www.rego
  1
-fix.com}
  0
XRECORD
  5
1A2
102
{ACAD_REACTORS
330
1A1
102
}
330
1A1
100
AcDbXrecord
280
     1
 40
47111022.0
  1
\pxsm1.;{\fSolid Edge ISO|b0||i0||c0|p34;\C7;\H2.;\W1.;This is a non-controlled copy. All information given herein is subject to change without notice\P}{\fSolid Edge ISO|b0||i0||c0|p34;\C7;\H2.;\W1.;\P}{\fSolid Edge ISO|b0||i0||c0|p34;\C7;\H2.;\W1.;
  1
The information given herein has been carefully checked and is believed to be correct. REGO-FIX,\P}{\fSolid Edge ISO|b0||i0||c0|p34;\C7;\H2.;\W1.;however, assumes no responsibility or liability for any errors, inaccuracies or omissions that may appea
  1
r\P}{\fSolid Edge ISO|b0||i0||c0|p34;\C7;\H2.;\W1.;in this drawing\P}{\fSolid Edge ISO|b0||i0||c0|p34;\C7;\H2.;\W1.;\P}{\fSolid Edge ISO|b0||i0||c0|p34;\C7;\H2.;\W1.;This document is subject to copyright laws. No part of this document may be reproduc
  1
ed or transmitted\P}{\fSolid Edge ISO|b0||i0||c0|p34;\C7;\H2.;\W1.;in any form or any means, electronic or mechanic, for any purpose, without the express written permission\P}{\fSolid Edge ISO|b0||i0||c0|p34;\C7;\H2.;\W1.;of REGO-FIX\P}{\fSolid Edge 
  1
ISO|b0||i0||c0|p34;\C7;\H1.5;\W1.;\P}
  0
XRECORD
  5
1A4
102
{ACAD_REACTORS
330
1A3
102
}
330
1A3
100
AcDbXrecord
280
     1
 40
2697483.0
  1
\pxsm1.;{\fVectora Com 45 Light|b0||i0||c0|p34;\C7;\H3.5;\W1.;Type :\P}{\fVectora Com 45 Light|b0||i0||c0|p34;\C7;\H3.5;\W1.;Part No. :\P}{\fVectora Com 45 Light|b0||i0||c0|p34;\C7;\H3.5;\W1.;Date : \P}{\fVectora Com 45 Light|b0||i0||c0|p34;\C7;\H3.5
  1
;\W1.;Scale :}
  0
LAYOUT
  5
1E
102
{ACAD_REACTORS
330
1A
102
}
330
1A
100
AcDbPlotSettings
  1

  2
none_device
  4

  6

 40
0.0
 41
0.0
 42
0.0
 43
0.0
 44
0.0
 45
0.0
 46
0.0
 47
0.0
 48
0.0
 49
0.0
140
0.0
141
0.0
142
1.0
143
1.0
 70
   688
 72
     0
 73
     0
 74
     5
  7

 75
    16
147
1.0
148
0.0
149
0.0
100
AcDbLayout
  1
Layout1
 70
     1
 71
     1
 10
0.0
 20
0.0
 11
297.0
 21
210.0
 12
0.0
 22
0.0
 32
0.0
 14
0.0
 24
0.0
 34
0.0
 15
297.0
 25
210.0
 35
0.0
146
0.0
 13
0.0
 23
0.0
 33
0.0
 16
1.0
 26
0.0
 36
0.0
 17
0.0
 27
1.0
 37
0.0
 76
     0
330
1B
  0
LAYOUT
  5
22
102
{ACAD_REACTORS
330
1A
102
}
330
1A
100
AcDbPlotSettings
  1

  2
none_device
  4

  6

 40
0.0
 41
0.0
 42
0.0
 43
0.0
 44
0.0
 45
0.0
 46
0.0
 47
0.0
 48
0.0
 49
0.0
140
0.0
141
0.0
142
1.0
143
1.0
 70
  1712
 72
     0
 73
     0
 74
     0
  7

 75
     0
147
1.0
148
0.0
149
0.0
100
AcDbLayout
  1
Model
 70
     1
 71
     0
 10
0.0
 20
0.0
 11
297.0
 21
210.0
 12
0.0
 22
0.0
 32
0.0
 14
0.0
 24
0.0
 34
0.0
 15
297.0
 25
210.0
 35
0.0
146
0.0
 13
0.0
 23
0.0
 33
0.0
 16
1.0
 26
0.0
 36
0.0
 17
0.0
 27
1.0
 37
0.0
 76
     0
330
1F
331
29
  0
MATERIAL
  5
3D
102
{ACAD_REACTORS
330
3B
102
}
102
{ACAD_XDICTIONARY
360
1C7
102
}
330
3B
100
AcDbMaterial
  1
ByBlock
  0
MATERIAL
  5
3C
102
{ACAD_REACTORS
330
3B
102
}
102
{ACAD_XDICTIONARY
360
1C5
102
}
330
3B
100
AcDbMaterial
  1
ByLayer
  0
MATERIAL
  5
3E
102
{ACAD_REACTORS
330
3B
102
}
102
{ACAD_XDICTIONARY
360
1C9
102
}
330
3B
100
AcDbMaterial
  1
Global
  0
MLINESTYLE
  5
18
102
{ACAD_REACTORS
330
17
102
}
330
17
100
AcDbMlineStyle
  2
Standard
 70
     0
  3

 62
   256
 51
90.0
 52
90.0
 71
     2
 49
0.5
 62
   256
  6
BYLAYER
 49
-0.5
 62
   256
  6
BYLAYER
  0
ACDBPLACEHOLDER
  5
F
102
{ACAD_REACTORS
330
E
102
}
330
E
  0
VISUALSTYLE
  5
2F
102
{ACAD_REACTORS
330
2A
102
}
102
{ACAD_XDICTIONARY
360
1AD
102
}
330
2A
100
AcDbVisualStyle
  2
2dWireframe
 70
     4
 71
     0
 72
     2
 73
     0
 90
        0
 40
-0.6
 41
-30.0
 62
     5
 63
     7
 74
     1
 91
        4
 64
     7
 65
   257
 75
     1
175
     1
 42
1.0
 92
        0
 66
   257
 43
1.0
 76
     1
 77
     6
 78
     2
 67
     7
 79
     5
170
     0
171
     0
290
     0
174
     0
 93
        1
 44
0.0
173
     0
291
     0
 45
0.0
1001
ACAD
1000
AcDbSavedByObjectVersion
1070
     0
  0
VISUALSTYLE
  5
31
102
{ACAD_REACTORS
330
2A
102
}
102
{ACAD_XDICTIONARY
360
1B1
102
}
330
2A
100
AcDbVisualStyle
  2
3D Hidden
 70
     6
 71
     1
 72
     2
 73
     2
 90
        0
 40
-0.6
 41
-30.0
 62
     5
 63
     7
 74
     2
 91
        2
 64
     7
 65
   257
 75
     2
175
     1
 42
40.0
 92
        0
 66
   257
 43
1.0
 76
     1
 77
     6
 78
     2
 67
     7
 79
     3
170
     0
171
     0
290
     0
174
     0
 93
        1
 44
0.0
173
     0
291
     0
 45
0.0
1001
ACAD
1000
AcDbSavedByObjectVersion
1070
     0
  0
VISUALSTYLE
  5
30
102
{ACAD_REACTORS
330
2A
102
}
102
{ACAD_XDICTIONARY
360
1AF
102
}
330
2A
100
AcDbVisualStyle
  2
3dWireframe
 70
     5
 71
     0
 72
     2
 73
     0
 90
        0
 40
-0.6
 41
-30.0
 62
     5
 63
     7
 74
     1
 91
        4
 64
     7
 65
   257
 75
     1
175
     1
 42
1.0
 92
        0
 66
   257
 43
1.0
 76
     1
 77
     6
 78
     2
 67
     7
 79
     5
170
     0
171
     0
290
     0
174
     0
 93
        1
 44
0.0
173
     0
291
     0
 45
0.0
1001
ACAD
1000
AcDbSavedByObjectVersion
1070
     0
  0
VISUALSTYLE
  5
32
102
{ACAD_REACTORS
330
2A
102
}
102
{ACAD_XDICTIONARY
360
1B3
102
}
330
2A
100
AcDbVisualStyle
  2
Basic
 70
     7
 71
     1
 72
     0
 73
     1
 90
        0
 40
-0.6
 41
-30.0
 62
     5
 63
     7
 74
     0
 91
        4
 64
     7
 65
   257
 75
     1
175
     1
 42
1.0
 92
        8
 66
     7
 43
1.0
 76
     1
 77
     6
 78
     2
 67
     7
 79
     5
170
     0
171
     0
290
     0
174
     0
 93
        1
 44
0.0
173
     0
291
     1
 45
0.0
1001
ACAD
1000
AcDbSavedByObjectVersion
1070
     0
  0
VISUALSTYLE
  5
36
102
{ACAD_REACTORS
330
2A
102
}
102
{ACAD_XDICTIONARY
360
1BB
102
}
330
2A
100
AcDbVisualStyle
  2
Brighten
 70
    12
 71
     2
 72
     2
 73
     0
 90
        0
 40
-0.6
 41
-30.0
 62
     5
 63
     7
 74
     1
 91
        4
 64
     7
 65
   257
 75
     1
175
     1
 42
1.0
 92
        8
 66
     7
 43
1.0
 76
     1
 77
     6
 78
     2
 67
     7
 79
     5
170
     0
171
     0
290
     0
174
     0
 93
        1
 44
50.0
173
     0
291
     1
 45
0.0
1001
ACAD
1000
AcDbSavedByObjectVersion
1070
     0
  0
VISUALSTYLE
  5
3A
102
{ACAD_REACTORS
330
2A
102
}
102
{ACAD_XDICTIONARY
360
1C3
102
}
330
2A
100
AcDbVisualStyle
  2
ColorChange
 70
    16
 71
     2
 72
     2
 73
     3
 90
        0
 40
-0.6
 41
-30.0
 62
     5
 63
     8
 74
     1
 91
        4
 64
     7
 65
   257
 75
     1
175
     1
 42
1.0
 92
        8
 66
     8
 43
1.0
 76
     1
 77
     6
 78
     2
 67
     7
 79
     5
170
     0
171
     0
290
     0
174
     0
 93
        1
 44
0.0
173
     0
291
     1
 45
0.0
1001
ACAD
1000
AcDbSavedByObjectVersion
1070
     0
  0
VISUALSTYLE
  5
34
102
{ACAD_REACTORS
330
2A
102
}
102
{ACAD_XDICTIONARY
360
1B7
102
}
330
2A
100
AcDbVisualStyle
  2
Conceptual
 70
     9
 71
     3
 72
     2
 73
     0
 90
        0
 40
-0.6
 41
-30.0
 62
     5
 63
     7
 74
     2
 91
        2
 64
     7
 65
   257
 75
     1
175
     1
 42
40.0
 92
        8
 66
     7
 43
1.0
 76
     1
 77
     6
 78
     2
 67
     7
 79
     3
170
     0
171
     0
290
     0
174
     0
 93
        1
 44
0.0
173
     0
291
     0
 45
0.0
1001
ACAD
1000
AcDbSavedByObjectVersion
1070
     0
  0
VISUALSTYLE
  5
35
102
{ACAD_REACTORS
330
2A
102
}
102
{ACAD_XDICTIONARY
360
1B9
102
}
330
2A
100
AcDbVisualStyle
  2
Dim
 70
    11
 71
     2
 72
     2
 73
     0
 90
        0
 40
-0.6
 41
-30.0
 62
     5
 63
     7
 74
     1
 91
        4
 64
     7
 65
   257
 75
     1
175
     1
 42
1.0
 92
        8
 66
     7
 43
1.0
 76
     1
 77
     6
 78
     2
 67
     7
 79
     5
170
     0
171
     0
290
     0
174
     0
 93
        1
 44
-50.0
173
     0
291
     1
 45
0.0
1001
ACAD
1000
AcDbSavedByObjectVersion
1070
     0
  0
VISUALSTYLE
  5
39
102
{ACAD_REACTORS
330
2A
102
}
102
{ACAD_XDICTIONARY
360
1C1
102
}
330
2A
100
AcDbVisualStyle
  2
Facepattern
 70
    15
 71
     2
 72
     2
 73
     0
 90
        0
 40
-0.6
 41
-30.0
 62
     5
 63
     7
 74
     1
 91
        4
 64
     7
 65
   257
 75
     1
175
     1
 42
1.0
 92
        8
 66
     7
 43
1.0
 76
     1
 77
     6
 78
     2
 67
     7
 79
     5
170
     0
171
     0
290
     0
174
     0
 93
        1
 44
0.0
173
     0
291
     1
 45
0.0
1001
ACAD
1000
AcDbSavedByObjectVersion
1070
     0
  0
VISUALSTYLE
  5
2B
102
{ACAD_REACTORS
330
2A
102
}
102
{ACAD_XDICTIONARY
360
1A5
102
}
330
2A
100
AcDbVisualStyle
  2
Flat
 70
     0
 71
     2
 72
     1
 73
     1
 90
        2
 40
-0.6
 41
30.0
 62
     5
 63
     7
 74
     0
 91
        4
 64
     7
 65
   257
 75
     1
175
     1
 42
1.0
 92
        8
 66
     7
 43
1.0
 76
     1
 77
     6
 78
     2
 67
     7
 79
     5
170
     0
171
     0
290
     0
174
     0
 93
       13
 44
0.0
173
     0
291
     1
 45
0.0
1001
ACAD
1000
AcDbSavedByObjectVersion
1070
     0
  0
VISUALSTYLE
  5
2C
102
{ACAD_REACTORS
330
2A
102
}
102
{ACAD_XDICTIONARY
360
1A7
102
}
330
2A
100
AcDbVisualStyle
  2
FlatWithEdges
 70
     1
 71
     2
 72
     1
 73
     1
 90
        2
 40
-0.6
 41
30.0
 62
     5
 63
     7
 74
     1
 91
        4
 64
     7
 65
   257
 75
     1
175
     1
 42
1.0
 92
        0
 66
   257
 43
1.0
 76
     1
 77
     6
 78
     2
 67
     7
 79
     5
170
     0
171
     0
290
     0
174
     0
 93
       13
 44
0.0
173
     0
291
     1
 45
0.0
1001
ACAD
1000
AcDbSavedByObjectVersion
1070
     0
  0
VISUALSTYLE
  5
2D
102
{ACAD_REACTORS
330
2A
102
}
102
{ACAD_XDICTIONARY
360
1A9
102
}
330
2A
100
AcDbVisualStyle
  2
Gouraud
 70
     2
 71
     2
 72
     2
 73
     1
 90
        2
 40
-0.6
 41
30.0
 62
     5
 63
     7
 74
     0
 91
        4
 64
     7
 65
   257
 75
     1
175
     1
 42
1.0
 92
        0
 66
     7
 43
1.0
 76
     1
 77
     6
 78
     2
 67
     7
 79
     5
170
     0
171
     0
290
     0
174
     0
 93
       13
 44
0.0
173
     0
291
     1
 45
0.0
1001
ACAD
1000
AcDbSavedByObjectVersion
1070
     0
  0
VISUALSTYLE
  5
2E
102
{ACAD_REACTORS
330
2A
102
}
102
{ACAD_XDICTIONARY
360
1AB
102
}
330
2A
100
AcDbVisualStyle
  2
GouraudWithEdges
 70
     3
 71
     2
 72
     2
 73
     1
 90
        2
 40
-0.6
 41
30.0
 62
     5
 63
     7
 74
     1
 91
        4
 64
     7
 65
   257
 75
     1
175
     1
 42
1.0
 92
        0
 66
   257
 43
1.0
 76
     1
 77
     6
 78
     2
 67
     7
 79
     5
170
     0
171
     0
290
     0
174
     0
 93
       13
 44
0.0
173
     0
291
     1
 45
0.0
1001
ACAD
1000
AcDbSavedByObjectVersion
1070
     0
  0
VISUALSTYLE
  5
38
102
{ACAD_REACTORS
330
2A
102
}
102
{ACAD_XDICTIONARY
360
1BF
102
}
330
2A
100
AcDbVisualStyle
  2
Linepattern
 70
    14
 71
     2
 72
     2
 73
     0
 90
        0
 40
-0.6
 41
-30.0
 62
     5
 63
     7
 74
     1
 91
        4
 64
     7
 65
   257
 75
     7
175
     7
 42
1.0
 92
        8
 66
     7
 43
1.0
 76
     1
 77
     6
 78
     2
 67
     7
 79
     5
170
     0
171
     0
290
     0
174
     0
 93
        1
 44
0.0
173
     0
291
     1
 45
0.0
1001
ACAD
1000
AcDbSavedByObjectVersion
1070
     0
  0
VISUALSTYLE
  5
33
102
{ACAD_REACTORS
330
2A
102
}
102
{ACAD_XDICTIONARY
360
1B5
102
}
330
2A
100
AcDbVisualStyle
  2
Realistic
 70
     8
 71
     2
 72
     2
 73
     0
 90
        0
 40
-0.6
 41
-30.0
 62
     5
 63
     7
 74
     1
 91
        0
 64
     7
 65
   257
 75
     1
175
     1
 42
1.0
 92
        8
 66
     8
 43
1.0
 76
     1
 77
     6
 78
     2
 67
     7
 79
     5
170
     0
171
     0
290
     0
174
     0
 93
       13
 44
0.0
173
     0
291
     0
 45
0.0
1001
ACAD
1000
AcDbSavedByObjectVersion
1070
     0
  0
VISUALSTYLE
  5
37
102
{ACAD_REACTORS
330
2A
102
}
102
{ACAD_XDICTIONARY
360
1BD
102
}
330
2A
100
AcDbVisualStyle
  2
Thicken
 70
    13
 71
     2
 72
     2
 73
     0
 90
        0
 40
-0.6
 41
-30.0
 62
     5
 63
     7
 74
     1
 91
        4
 64
     7
 65
   257
 75
     1
175
     1
 42
1.0
 92
       12
 66
     7
 43
1.0
 76
     1
 77
     6
 78
     2
 67
     7
 79
     5
170
     0
171
     0
290
     0
174
     0
 93
        1
 44
0.0
173
     0
291
     1
 45
0.0
1001
ACAD
1000
AcDbSavedByObjectVersion
1070
     0
  0
DICTIONARYVAR
  5
19D
102
{ACAD_REACTORS
330
198
102
}
330
198
100
DictionaryVariables
280
     0
  1
2
  0
DICTIONARYVAR
  5
19E
102
{ACAD_REACTORS
330
198
102
}
330
198
100
DictionaryVariables
280
     0
  1
1
  0
DICTIONARYVAR
  5
19C
102
{ACAD_REACTORS
330
198
102
}
330
198
100
DictionaryVariables
280
     0
  1
80.000000
  0
DICTIONARYVAR
  5
19B
102
{ACAD_REACTORS
330
198
102
}
330
198
100
DictionaryVariables
280
     0
  1
5.000000
  0
DICTIONARY
  5
1C7
330
3D
100
AcDbDictionary
280
     1
281
     1
  3
ACAD_XREC_ROUNDTRIP
360
1C8
  0
DICTIONARY
  5
1C5
330
3C
100
AcDbDictionary
280
     1
281
     1
  3
ACAD_XREC_ROUNDTRIP
360
1C6
  0
DICTIONARY
  5
1C9
330
3E
100
AcDbDictionary
280
     1
281
     1
  3
ACAD_XREC_ROUNDTRIP
360
1CA
  0
DICTIONARY
  5
1AD
330
2F
100
AcDbDictionary
280
     1
281
     1
  3
ACAD_XREC_ROUNDTRIP
360
1AE
  0
DICTIONARY
  5
1B1
330
31
100
AcDbDictionary
280
     1
281
     1
  3
ACAD_XREC_ROUNDTRIP
360
1B2
  0
DICTIONARY
  5
1AF
330
30
100
AcDbDictionary
280
     1
281
     1
  3
ACAD_XREC_ROUNDTRIP
360
1B0
  0
DICTIONARY
  5
1B3
330
32
100
AcDbDictionary
280
     1
281
     1
  3
ACAD_XREC_ROUNDTRIP
360
1B4
  0
DICTIONARY
  5
1BB
330
36
100
AcDbDictionary
280
     1
281
     1
  3
ACAD_XREC_ROUNDTRIP
360
1BC
  0
DICTIONARY
  5
1C3
330
3A
100
AcDbDictionary
280
     1
281
     1
  3
ACAD_XREC_ROUNDTRIP
360
1C4
  0
DICTIONARY
  5
1B7
330
34
100
AcDbDictionary
280
     1
281
     1
  3
ACAD_XREC_ROUNDTRIP
360
1B8
  0
DICTIONARY
  5
1B9
330
35
100
AcDbDictionary
280
     1
281
     1
  3
ACAD_XREC_ROUNDTRIP
360
1BA
  0
DICTIONARY
  5
1C1
330
39
100
AcDbDictionary
280
     1
281
     1
  3
ACAD_XREC_ROUNDTRIP
360
1C2
  0
DICTIONARY
  5
1A5
330
2B
100
AcDbDictionary
280
     1
281
     1
  3
ACAD_XREC_ROUNDTRIP
360
1A6
  0
DICTIONARY
  5
1A7
330
2C
100
AcDbDictionary
280
     1
281
     1
  3
ACAD_XREC_ROUNDTRIP
360
1A8
  0
DICTIONARY
  5
1A9
330
2D
100
AcDbDictionary
280
     1
281
     1
  3
ACAD_XREC_ROUNDTRIP
360
1AA
  0
DICTIONARY
  5
1AB
330
2E
100
AcDbDictionary
280
     1
281
     1
  3
ACAD_XREC_ROUNDTRIP
360
1AC
  0
DICTIONARY
  5
1BF
330
38
100
AcDbDictionary
280
     1
281
     1
  3
ACAD_XREC_ROUNDTRIP
360
1C0
  0
DICTIONARY
  5
1B5
330
33
100
AcDbDictionary
280
     1
281
     1
  3
ACAD_XREC_ROUNDTRIP
360
1B6
  0
DICTIONARY
  5
1BD
330
37
100
AcDbDictionary
280
     1
281
     1
  3
ACAD_XREC_ROUNDTRIP
360
1BE
  0
XRECORD
  5
1C8
102
{ACAD_REACTORS
330
1C7
102
}
330
1C7
100
AcDbXrecord
280
     1
102
MATERIAL
148
0.0
149
0.0
149
0.0
 93
        0
 94
      127
282
     0
 72
     1
 77
     1
171
     1
175
     1
179
     1
273
     0
  0
XRECORD
  5
1C6
102
{ACAD_REACTORS
330
1C5
102
}
330
1C5
100
AcDbXrecord
280
     1
102
MATERIAL
148
0.0
149
0.0
149
0.0
 93
        0
 94
      127
282
     0
 72
     1
 77
     1
171
     1
175
     1
179
     1
273
     0
  0
XRECORD
  5
1CA
102
{ACAD_REACTORS
330
1C9
102
}
330
1C9
100
AcDbXrecord
280
     1
102
MATERIAL
148
0.0
149
0.0
149
0.0
 93
        0
 94
      127
282
     0
 72
     1
 77
     1
171
     1
175
     1
179
     1
273
     0
  0
XRECORD
  5
1AE
102
{ACAD_REACTORS
330
1AD
102
}
330
1AD
100
AcDbXrecord
280
     1
102
RTVSPropertyOp0
 70
     1
102
RTVSPropertyOp1
 70
     1
102
RTVSPropertyOp2
 70
     1
102
RTVSPropertyOp3
 70
     1
102
RTVSPropertyOp4
 70
     1
102
RTVSPropertyOp5
 70
     1
102
RTVSPropertyOp6
 70
     1
102
RTVSPropertyOp7
 70
     1
102
RTVSPropertyOp8
 70
     1
102
RTVSPropertyOp9
 70
     1
102
RTVSPropertyOp10
 70
     1
102
RTVSPropertyOp11
 70
     1
102
RTVSPropertyOp12
 70
     1
102
RTVSPropertyOp13
 70
     1
102
RTVSPropertyOp14
 70
     1
102
RTVSPropertyOp15
 70
     1
102
RTVSPropertyOp16
 70
     1
102
RTVSPropertyOp17
 70
     1
102
RTVSPropertyOp18
 70
     1
102
RTVSPropertyOp19
 70
     1
102
RTVSPropertyOp20
 70
     1
102
RTVSPropertyOp21
 70
     1
102
RTVSPropertyOp22
 70
     1
102
RTVSPropertyOp23
 70
     1
102
RTVSPropertyOp24
 70
     1
102
RTVSPropertyOp25
 70
     1
102
RTVSPropertyOp26
 70
     1
102
RTVSPropertyOp27
 70
     1
102
RTVSPropertyOp28
 70
     1
102
RTVSPropertyOp29
 70
     1
102
RTVSPropertyOp30
 70
     1
102
RTVSPropertyOp31
 70
     1
102
RTVSPropertyOp32
 70
     1
  0
XRECORD
  5
1B2
102
{ACAD_REACTORS
330
1B1
102
}
330
1B1
100
AcDbXrecord
280
     1
102
RTVSPropertyOp0
 70
     1
102
RTVSPropertyOp1
 70
     1
102
RTVSPropertyOp2
 70
     1
102
RTVSPropertyOp3
 70
     1
102
RTVSPropertyOp4
 70
     1
102
RTVSPropertyOp5
 70
     1
102
RTVSPropertyOp6
 70
     1
102
RTVSPropertyOp7
 70
     1
102
RTVSPropertyOp8
 70
     1
102
RTVSPropertyOp9
 70
     1
102
RTVSPropertyOp10
 70
     1
102
RTVSPropertyOp11
 70
     1
102
RTVSPropertyOp12
 70
     1
102
RTVSPropertyOp13
 70
     1
102
RTVSPropertyOp14
 70
     1
102
RTVSPropertyOp15
 70
     1
102
RTVSPropertyOp16
 70
     1
102
RTVSPropertyOp17
 70
     1
102
RTVSPropertyOp18
 70
     1
102
RTVSPropertyOp19
 70
     1
102
RTVSPropertyOp20
 70
     1
102
RTVSPropertyOp21
 70
     1
102
RTVSPropertyOp22
 70
     1
102
RTVSPropertyOp23
 70
     1
102
RTVSPropertyOp24
 70
     1
102
RTVSPropertyOp25
 70
     1
102
RTVSPropertyOp26
 70
     1
102
RTVSPropertyOp27
 70
     1
102
RTVSPropertyOp28
 70
     1
102
RTVSPropertyOp29
 70
     1
102
RTVSPropertyOp30
 70
     1
102
RTVSPropertyOp31
 70
     1
102
RTVSPropertyOp32
 70
     1
  0
XRECORD
  5
1B0
102
{ACAD_REACTORS
330
1AF
102
}
330
1AF
100
AcDbXrecord
280
     1
102
RTVSPropertyOp0
 70
     1
102
RTVSPropertyOp1
 70
     1
102
RTVSPropertyOp2
 70
     1
102
RTVSPropertyOp3
 70
     1
102
RTVSPropertyOp4
 70
     1
102
RTVSPropertyOp5
 70
     1
102
RTVSPropertyOp6
 70
     1
102
RTVSPropertyOp7
 70
     1
102
RTVSPropertyOp8
 70
     1
102
RTVSPropertyOp9
 70
     1
102
RTVSPropertyOp10
 70
     1
102
RTVSPropertyOp11
 70
     1
102
RTVSPropertyOp12
 70
     1
102
RTVSPropertyOp13
 70
     1
102
RTVSPropertyOp14
 70
     1
102
RTVSPropertyOp15
 70
     1
102
RTVSPropertyOp16
 70
     1
102
RTVSPropertyOp17
 70
     1
102
RTVSPropertyOp18
 70
     1
102
RTVSPropertyOp19
 70
     1
102
RTVSPropertyOp20
 70
     1
102
RTVSPropertyOp21
 70
     1
102
RTVSPropertyOp22
 70
     1
102
RTVSPropertyOp23
 70
     1
102
RTVSPropertyOp24
 70
     1
102
RTVSPropertyOp25
 70
     1
102
RTVSPropertyOp26
 70
     1
102
RTVSPropertyOp27
 70
     1
102
RTVSPropertyOp28
 70
     1
102
RTVSPropertyOp29
 70
     1
102
RTVSPropertyOp30
 70
     1
102
RTVSPropertyOp31
 70
     1
102
RTVSPropertyOp32
 70
     1
  0
XRECORD
  5
1B4
102
{ACAD_REACTORS
330
1B3
102
}
330
1B3
100
AcDbXrecord
280
     1
102
RTVSPropertyOp0
 70
     1
102
RTVSPropertyOp1
 70
     1
102
RTVSPropertyOp2
 70
     1
102
RTVSPropertyOp3
 70
     1
102
RTVSPropertyOp4
 70
     1
102
RTVSPropertyOp5
 70
     1
102
RTVSPropertyOp6
 70
     1
102
RTVSPropertyOp7
 70
     1
102
RTVSPropertyOp8
 70
     1
102
RTVSPropertyOp9
 70
     1
102
RTVSPropertyOp10
 70
     1
102
RTVSPropertyOp11
 70
     1
102
RTVSPropertyOp12
 70
     1
102
RTVSPropertyOp13
 70
     1
102
RTVSPropertyOp14
 70
     1
102
RTVSPropertyOp15
 70
     1
102
RTVSPropertyOp16
 70
     1
102
RTVSPropertyOp17
 70
     1
102
RTVSPropertyOp18
 70
     1
102
RTVSPropertyOp19
 70
     1
102
RTVSPropertyOp20
 70
     1
102
RTVSPropertyOp21
 70
     1
102
RTVSPropertyOp22
 70
     1
102
RTVSPropertyOp23
 70
     1
102
RTVSPropertyOp24
 70
     1
102
RTVSPropertyOp25
 70
     1
102
RTVSPropertyOp26
 70
     1
102
RTVSPropertyOp27
 70
     1
102
RTVSPropertyOp28
 70
     1
102
RTVSPropertyOp29
 70
     1
102
RTVSPropertyOp30
 70
     1
102
RTVSPropertyOp31
 70
     1
102
RTVSPropertyOp32
 70
     1
  0
XRECORD
  5
1BC
102
{ACAD_REACTORS
330
1BB
102
}
330
1BB
100
AcDbXrecord
280
     1
102
RTVSPropertyOp0
 70
     1
102
RTVSPropertyOp1
 70
     1
102
RTVSPropertyOp2
 70
     1
102
RTVSPropertyOp3
 70
     1
102
RTVSPropertyOp4
 70
     1
102
RTVSPropertyOp5
 70
     1
102
RTVSPropertyOp6
 70
     1
102
RTVSPropertyOp7
 70
     1
102
RTVSPropertyOp8
 70
     1
102
RTVSPropertyOp9
 70
     1
102
RTVSPropertyOp10
 70
     1
102
RTVSPropertyOp11
 70
     1
102
RTVSPropertyOp12
 70
     1
102
RTVSPropertyOp13
 70
     1
102
RTVSPropertyOp14
 70
     1
102
RTVSPropertyOp15
 70
     1
102
RTVSPropertyOp16
 70
     1
102
RTVSPropertyOp17
 70
     1
102
RTVSPropertyOp18
 70
     1
102
RTVSPropertyOp19
 70
     1
102
RTVSPropertyOp20
 70
     1
102
RTVSPropertyOp21
 70
     1
102
RTVSPropertyOp22
 70
     1
102
RTVSPropertyOp23
 70
     1
102
RTVSPropertyOp24
 70
     1
102
RTVSPropertyOp25
 70
     1
102
RTVSPropertyOp26
 70
     1
102
RTVSPropertyOp27
 70
     1
102
RTVSPropertyOp28
 70
     1
102
RTVSPropertyOp29
 70
     1
102
RTVSPropertyOp30
 70
     1
102
RTVSPropertyOp31
 70
     1
102
RTVSPropertyOp32
 70
     1
  0
XRECORD
  5
1C4
102
{ACAD_REACTORS
330
1C3
102
}
330
1C3
100
AcDbXrecord
280
     1
102
RTVSPropertyOp0
 70
     1
102
RTVSPropertyOp1
 70
     1
102
RTVSPropertyOp2
 70
     1
102
RTVSPropertyOp3
 70
     1
102
RTVSPropertyOp4
 70
     1
102
RTVSPropertyOp5
 70
     1
102
RTVSPropertyOp6
 70
     1
102
RTVSPropertyOp7
 70
     1
102
RTVSPropertyOp8
 70
     1
102
RTVSPropertyOp9
 70
     1
102
RTVSPropertyOp10
 70
     1
102
RTVSPropertyOp11
 70
     1
102
RTVSPropertyOp12
 70
     1
102
RTVSPropertyOp13
 70
     1
102
RTVSPropertyOp14
 70
     1
102
RTVSPropertyOp15
 70
     1
102
RTVSPropertyOp16
 70
     1
102
RTVSPropertyOp17
 70
     1
102
RTVSPropertyOp18
 70
     1
102
RTVSPropertyOp19
 70
     1
102
RTVSPropertyOp20
 70
     1
102
RTVSPropertyOp21
 70
     1
102
RTVSPropertyOp22
 70
     1
102
RTVSPropertyOp23
 70
     1
102
RTVSPropertyOp24
 70
     1
102
RTVSPropertyOp25
 70
     1
102
RTVSPropertyOp26
 70
     1
102
RTVSPropertyOp27
 70
     1
102
RTVSPropertyOp28
 70
     1
102
RTVSPropertyOp29
 70
     1
102
RTVSPropertyOp30
 70
     1
102
RTVSPropertyOp31
 70
     1
102
RTVSPropertyOp32
 70
     1
  0
XRECORD
  5
1B8
102
{ACAD_REACTORS
330
1B7
102
}
330
1B7
100
AcDbXrecord
280
     1
102
RTVSPropertyOp0
 70
     1
102
RTVSPropertyOp1
 70
     1
102
RTVSPropertyOp2
 70
     1
102
RTVSPropertyOp3
 70
     1
102
RTVSPropertyOp4
 70
     1
102
RTVSPropertyOp5
 70
     1
102
RTVSPropertyOp6
 70
     1
102
RTVSPropertyOp7
 70
     1
102
RTVSPropertyOp8
 70
     1
102
RTVSPropertyOp9
 70
     1
102
RTVSPropertyOp10
 70
     1
102
RTVSPropertyOp11
 70
     1
102
RTVSPropertyOp12
 70
     1
102
RTVSPropertyOp13
 70
     1
102
RTVSPropertyOp14
 70
     1
102
RTVSPropertyOp15
 70
     1
102
RTVSPropertyOp16
 70
     1
102
RTVSPropertyOp17
 70
     1
102
RTVSPropertyOp18
 70
     1
102
RTVSPropertyOp19
 70
     1
102
RTVSPropertyOp20
 70
     1
102
RTVSPropertyOp21
 70
     1
102
RTVSPropertyOp22
 70
     1
102
RTVSPropertyOp23
 70
     1
102
RTVSPropertyOp24
 70
     1
102
RTVSPropertyOp25
 70
     1
102
RTVSPropertyOp26
 70
     1
102
RTVSPropertyOp27
 70
     1
102
RTVSPropertyOp28
 70
     1
102
RTVSPropertyOp29
 70
     1
102
RTVSPropertyOp30
 70
     1
102
RTVSPropertyOp31
 70
     1
102
RTVSPropertyOp32
 70
     1
  0
XRECORD
  5
1BA
102
{ACAD_REACTORS
330
1B9
102
}
330
1B9
100
AcDbXrecord
280
     1
102
RTVSPropertyOp0
 70
     1
102
RTVSPropertyOp1
 70
     1
102
RTVSPropertyOp2
 70
     1
102
RTVSPropertyOp3
 70
     1
102
RTVSPropertyOp4
 70
     1
102
RTVSPropertyOp5
 70
     1
102
RTVSPropertyOp6
 70
     1
102
RTVSPropertyOp7
 70
     1
102
RTVSPropertyOp8
 70
     1
102
RTVSPropertyOp9
 70
     1
102
RTVSPropertyOp10
 70
     1
102
RTVSPropertyOp11
 70
     1
102
RTVSPropertyOp12
 70
     1
102
RTVSPropertyOp13
 70
     1
102
RTVSPropertyOp14
 70
     1
102
RTVSPropertyOp15
 70
     1
102
RTVSPropertyOp16
 70
     1
102
RTVSPropertyOp17
 70
     1
102
RTVSPropertyOp18
 70
     1
102
RTVSPropertyOp19
 70
     1
102
RTVSPropertyOp20
 70
     1
102
RTVSPropertyOp21
 70
     1
102
RTVSPropertyOp22
 70
     1
102
RTVSPropertyOp23
 70
     1
102
RTVSPropertyOp24
 70
     1
102
RTVSPropertyOp25
 70
     1
102
RTVSPropertyOp26
 70
     1
102
RTVSPropertyOp27
 70
     1
102
RTVSPropertyOp28
 70
     1
102
RTVSPropertyOp29
 70
     1
102
RTVSPropertyOp30
 70
     1
102
RTVSPropertyOp31
 70
     1
102
RTVSPropertyOp32
 70
     1
  0
XRECORD
  5
1C2
102
{ACAD_REACTORS
330
1C1
102
}
330
1C1
100
AcDbXrecord
280
     1
102
RTVSPropertyOp0
 70
     1
102
RTVSPropertyOp1
 70
     1
102
RTVSPropertyOp2
 70
     1
102
RTVSPropertyOp3
 70
     1
102
RTVSPropertyOp4
 70
     1
102
RTVSPropertyOp5
 70
     1
102
RTVSPropertyOp6
 70
     1
102
RTVSPropertyOp7
 70
     1
102
RTVSPropertyOp8
 70
     1
102
RTVSPropertyOp9
 70
     1
102
RTVSPropertyOp10
 70
     1
102
RTVSPropertyOp11
 70
     1
102
RTVSPropertyOp12
 70
     1
102
RTVSPropertyOp13
 70
     1
102
RTVSPropertyOp14
 70
     1
102
RTVSPropertyOp15
 70
     1
102
RTVSPropertyOp16
 70
     1
102
RTVSPropertyOp17
 70
     1
102
RTVSPropertyOp18
 70
     1
102
RTVSPropertyOp19
 70
     1
102
RTVSPropertyOp20
 70
     1
102
RTVSPropertyOp21
 70
     1
102
RTVSPropertyOp22
 70
     1
102
RTVSPropertyOp23
 70
     1
102
RTVSPropertyOp24
 70
     1
102
RTVSPropertyOp25
 70
     1
102
RTVSPropertyOp26
 70
     1
102
RTVSPropertyOp27
 70
     1
102
RTVSPropertyOp28
 70
     1
102
RTVSPropertyOp29
 70
     1
102
RTVSPropertyOp30
 70
     1
102
RTVSPropertyOp31
 70
     1
102
RTVSPropertyOp32
 70
     1
  0
XRECORD
  5
1A6
102
{ACAD_REACTORS
330
1A5
102
}
330
1A5
100
AcDbXrecord
280
     1
102
RTVSPropertyOp0
 70
     1
102
RTVSPropertyOp1
 70
     1
102
RTVSPropertyOp2
 70
     1
102
RTVSPropertyOp3
 70
     1
102
RTVSPropertyOp4
 70
     1
102
RTVSPropertyOp5
 70
     1
102
RTVSPropertyOp6
 70
     1
102
RTVSPropertyOp7
 70
     1
102
RTVSPropertyOp8
 70
     1
102
RTVSPropertyOp9
 70
     1
102
RTVSPropertyOp10
 70
     1
102
RTVSPropertyOp11
 70
     1
102
RTVSPropertyOp12
 70
     1
102
RTVSPropertyOp13
 70
     1
102
RTVSPropertyOp14
 70
     1
102
RTVSPropertyOp15
 70
     1
102
RTVSPropertyOp16
 70
     1
102
RTVSPropertyOp17
 70
     1
102
RTVSPropertyOp18
 70
     1
102
RTVSPropertyOp19
 70
     1
102
RTVSPropertyOp20
 70
     1
102
RTVSPropertyOp21
 70
     1
102
RTVSPropertyOp22
 70
     1
102
RTVSPropertyOp23
 70
     1
102
RTVSPropertyOp24
 70
     1
102
RTVSPropertyOp25
 70
     1
102
RTVSPropertyOp26
 70
     1
102
RTVSPropertyOp27
 70
     1
102
RTVSPropertyOp28
 70
     1
102
RTVSPropertyOp29
 70
     1
102
RTVSPropertyOp30
 70
     1
102
RTVSPropertyOp31
 70
     1
102
RTVSPropertyOp32
 70
     1
  0
XRECORD
  5
1A8
102
{ACAD_REACTORS
330
1A7
102
}
330
1A7
100
AcDbXrecord
280
     1
102
RTVSPropertyOp0
 70
     1
102
RTVSPropertyOp1
 70
     1
102
RTVSPropertyOp2
 70
     1
102
RTVSPropertyOp3
 70
     1
102
RTVSPropertyOp4
 70
     1
102
RTVSPropertyOp5
 70
     1
102
RTVSPropertyOp6
 70
     1
102
RTVSPropertyOp7
 70
     1
102
RTVSPropertyOp8
 70
     1
102
RTVSPropertyOp9
 70
     1
102
RTVSPropertyOp10
 70
     1
102
RTVSPropertyOp11
 70
     1
102
RTVSPropertyOp12
 70
     1
102
RTVSPropertyOp13
 70
     1
102
RTVSPropertyOp14
 70
     1
102
RTVSPropertyOp15
 70
     1
102
RTVSPropertyOp16
 70
     1
102
RTVSPropertyOp17
 70
     1
102
RTVSPropertyOp18
 70
     1
102
RTVSPropertyOp19
 70
     1
102
RTVSPropertyOp20
 70
     1
102
RTVSPropertyOp21
 70
     1
102
RTVSPropertyOp22
 70
     1
102
RTVSPropertyOp23
 70
     1
102
RTVSPropertyOp24
 70
     1
102
RTVSPropertyOp25
 70
     1
102
RTVSPropertyOp26
 70
     1
102
RTVSPropertyOp27
 70
     1
102
RTVSPropertyOp28
 70
     1
102
RTVSPropertyOp29
 70
     1
102
RTVSPropertyOp30
 70
     1
102
RTVSPropertyOp31
 70
     1
102
RTVSPropertyOp32
 70
     1
  0
XRECORD
  5
1AA
102
{ACAD_REACTORS
330
1A9
102
}
330
1A9
100
AcDbXrecord
280
     1
102
RTVSPropertyOp0
 70
     1
102
RTVSPropertyOp1
 70
     1
102
RTVSPropertyOp2
 70
     1
102
RTVSPropertyOp3
 70
     1
102
RTVSPropertyOp4
 70
     1
102
RTVSPropertyOp5
 70
     1
102
RTVSPropertyOp6
 70
     1
102
RTVSPropertyOp7
 70
     1
102
RTVSPropertyOp8
 70
     1
102
RTVSPropertyOp9
 70
     1
102
RTVSPropertyOp10
 70
     1
102
RTVSPropertyOp11
 70
     1
102
RTVSPropertyOp12
 70
     1
102
RTVSPropertyOp13
 70
     1
102
RTVSPropertyOp14
 70
     1
102
RTVSPropertyOp15
 70
     1
102
RTVSPropertyOp16
 70
     1
102
RTVSPropertyOp17
 70
     1
102
RTVSPropertyOp18
 70
     1
102
RTVSPropertyOp19
 70
     1
102
RTVSPropertyOp20
 70
     1
102
RTVSPropertyOp21
 70
     1
102
RTVSPropertyOp22
 70
     1
102
RTVSPropertyOp23
 70
     1
102
RTVSPropertyOp24
 70
     1
102
RTVSPropertyOp25
 70
     1
102
RTVSPropertyOp26
 70
     1
102
RTVSPropertyOp27
 70
     1
102
RTVSPropertyOp28
 70
     1
102
RTVSPropertyOp29
 70
     1
102
RTVSPropertyOp30
 70
     1
102
RTVSPropertyOp31
 70
     1
102
RTVSPropertyOp32
 70
     1
  0
XRECORD
  5
1AC
102
{ACAD_REACTORS
330
1AB
102
}
330
1AB
100
AcDbXrecord
280
     1
102
RTVSPropertyOp0
 70
     1
102
RTVSPropertyOp1
 70
     1
102
RTVSPropertyOp2
 70
     1
102
RTVSPropertyOp3
 70
     1
102
RTVSPropertyOp4
 70
     1
102
RTVSPropertyOp5
 70
     1
102
RTVSPropertyOp6
 70
     1
102
RTVSPropertyOp7
 70
     1
102
RTVSPropertyOp8
 70
     1
102
RTVSPropertyOp9
 70
     1
102
RTVSPropertyOp10
 70
     1
102
RTVSPropertyOp11
 70
     1
102
RTVSPropertyOp12
 70
     1
102
RTVSPropertyOp13
 70
     1
102
RTVSPropertyOp14
 70
     1
102
RTVSPropertyOp15
 70
     1
102
RTVSPropertyOp16
 70
     1
102
RTVSPropertyOp17
 70
     1
102
RTVSPropertyOp18
 70
     1
102
RTVSPropertyOp19
 70
     1
102
RTVSPropertyOp20
 70
     1
102
RTVSPropertyOp21
 70
     1
102
RTVSPropertyOp22
 70
     1
102
RTVSPropertyOp23
 70
     1
102
RTVSPropertyOp24
 70
     1
102
RTVSPropertyOp25
 70
     1
102
RTVSPropertyOp26
 70
     1
102
RTVSPropertyOp27
 70
     1
102
RTVSPropertyOp28
 70
     1
102
RTVSPropertyOp29
 70
     1
102
RTVSPropertyOp30
 70
     1
102
RTVSPropertyOp31
 70
     1
102
RTVSPropertyOp32
 70
     1
  0
XRECORD
  5
1C0
102
{ACAD_REACTORS
330
1BF
102
}
330
1BF
100
AcDbXrecord
280
     1
102
RTVSPropertyOp0
 70
     1
102
RTVSPropertyOp1
 70
     1
102
RTVSPropertyOp2
 70
     1
102
RTVSPropertyOp3
 70
     1
102
RTVSPropertyOp4
 70
     1
102
RTVSPropertyOp5
 70
     1
102
RTVSPropertyOp6
 70
     1
102
RTVSPropertyOp7
 70
     1
102
RTVSPropertyOp8
 70
     1
102
RTVSPropertyOp9
 70
     1
102
RTVSPropertyOp10
 70
     1
102
RTVSPropertyOp11
 70
     1
102
RTVSPropertyOp12
 70
     1
102
RTVSPropertyOp13
 70
     1
102
RTVSPropertyOp14
 70
     1
102
RTVSPropertyOp15
 70
     1
102
RTVSPropertyOp16
 70
     1
102
RTVSPropertyOp17
 70
     1
102
RTVSPropertyOp18
 70
     1
102
RTVSPropertyOp19
 70
     1
102
RTVSPropertyOp20
 70
     1
102
RTVSPropertyOp21
 70
     1
102
RTVSPropertyOp22
 70
     1
102
RTVSPropertyOp23
 70
     1
102
RTVSPropertyOp24
 70
     1
102
RTVSPropertyOp25
 70
     1
102
RTVSPropertyOp26
 70
     1
102
RTVSPropertyOp27
 70
     1
102
RTVSPropertyOp28
 70
     1
102
RTVSPropertyOp29
 70
     1
102
RTVSPropertyOp30
 70
     1
102
RTVSPropertyOp31
 70
     1
102
RTVSPropertyOp32
 70
     1
  0
XRECORD
  5
1B6
102
{ACAD_REACTORS
330
1B5
102
}
330
1B5
100
AcDbXrecord
280
     1
102
RTVSPropertyOp0
 70
     1
102
RTVSPropertyOp1
 70
     1
102
RTVSPropertyOp2
 70
     1
102
RTVSPropertyOp3
 70
     1
102
RTVSPropertyOp4
 70
     1
102
RTVSPropertyOp5
 70
     1
102
RTVSPropertyOp6
 70
     1
102
RTVSPropertyOp7
 70
     1
102
RTVSPropertyOp8
 70
     1
102
RTVSPropertyOp9
 70
     1
102
RTVSPropertyOp10
 70
     1
102
RTVSPropertyOp11
 70
     1
102
RTVSPropertyOp12
 70
     1
102
RTVSPropertyOp13
 70
     1
102
RTVSPropertyOp14
 70
     1
102
RTVSPropertyOp15
 70
     1
102
RTVSPropertyOp16
 70
     1
102
RTVSPropertyOp17
 70
     1
102
RTVSPropertyOp18
 70
     1
102
RTVSPropertyOp19
 70
     1
102
RTVSPropertyOp20
 70
     1
102
RTVSPropertyOp21
 70
     1
102
RTVSPropertyOp22
 70
     1
102
RTVSPropertyOp23
 70
     1
102
RTVSPropertyOp24
 70
     1
102
RTVSPropertyOp25
 70
     1
102
RTVSPropertyOp26
 70
     1
102
RTVSPropertyOp27
 70
     1
102
RTVSPropertyOp28
 70
     1
102
RTVSPropertyOp29
 70
     1
102
RTVSPropertyOp30
 70
     1
102
RTVSPropertyOp31
 70
     1
102
RTVSPropertyOp32
 70
     1
  0
XRECORD
  5
1BE
102
{ACAD_REACTORS
330
1BD
102
}
330
1BD
100
AcDbXrecord
280
     1
102
RTVSPropertyOp0
 70
     1
102
RTVSPropertyOp1
 70
     1
102
RTVSPropertyOp2
 70
     1
102
RTVSPropertyOp3
 70
     1
102
RTVSPropertyOp4
 70
     1
102
RTVSPropertyOp5
 70
     1
102
RTVSPropertyOp6
 70
     1
102
RTVSPropertyOp7
 70
     1
102
RTVSPropertyOp8
 70
     1
102
RTVSPropertyOp9
 70
     1
102
RTVSPropertyOp10
 70
     1
102
RTVSPropertyOp11
 70
     1
102
RTVSPropertyOp12
 70
     1
102
RTVSPropertyOp13
 70
     1
102
RTVSPropertyOp14
 70
     1
102
RTVSPropertyOp15
 70
     1
102
RTVSPropertyOp16
 70
     1
102
RTVSPropertyOp17
 70
     1
102
RTVSPropertyOp18
 70
     1
102
RTVSPropertyOp19
 70
     1
102
RTVSPropertyOp20
 70
     1
102
RTVSPropertyOp21
 70
     1
102
RTVSPropertyOp22
 70
     1
102
RTVSPropertyOp23
 70
     1
102
RTVSPropertyOp24
 70
     1
102
RTVSPropertyOp25
 70
     1
102
RTVSPropertyOp26
 70
     1
102
RTVSPropertyOp27
 70
     1
102
RTVSPropertyOp28
 70
     1
102
RTVSPropertyOp29
 70
     1
102
RTVSPropertyOp30
 70
     1
102
RTVSPropertyOp31
 70
     1
102
RTVSPropertyOp32
 70
     1
  0
ENDSEC
  0
EOF
