  0
SECTION
  2
HEADER
  9
$ACADVER
  1
AC1015
  9
$ACADMAINTVER
 70
     6
  9
$DWGCODEPAGE
  3
ANSI_1252
  9
$INSBASE
 10
0.0
 20
0.0
 30
0.0
  9
$EXTMIN
 10
0.0
 20
0.0
 30
0.0
  9
$EXTMAX
 10
297.0
 20
210.0
 30
0.0
  9
$LIMMIN
 10
0.0
 20
0.0
  9
$LIMMAX
 10
297.0
 20
210.0
  9
$ORTHOMODE
 70
     0
  9
$REGENMODE
 70
     1
  9
$FILLMODE
 70
     1
  9
$QTEXTMODE
 70
     0
  9
$MIRRTEXT
 70
     1
  9
$LTSCALE
 40
1.0
  9
$ATTMODE
 70
     1
  9
$TEXTSIZE
 40
2.5
  9
$TRACEWID
 40
1.0
  9
$TEXTSTYLE
  7
Standard
  9
$CLAYER
  8
0
  9
$CELTYPE
  6
ByLayer
  9
$CECOLOR
 62
   256
  9
$CELTSCALE
 40
1.0
  9
$DISPSILH
 70
     0
  9
$DIMSCALE
 40
1.0
  9
$DIMASZ
 40
2.5
  9
$DIMEXO
 40
0.625
  9
$DIMDLI
 40
3.75
  9
$DIMRND
 40
0.0
  9
$DIMDLE
 40
0.0
  9
$DIMEXE
 40
1.25
  9
$DIMTP
 40
0.0
  9
$DIMTM
 40
0.0
  9
$DIMTXT
 40
2.5
  9
$DIMCEN
 40
2.5
  9
$DIMTSZ
 40
0.0
  9
$DIMTOL
 70
     0
  9
$DIMLIM
 70
     0
  9
$DIMTIH
 70
     0
  9
$DIMTOH
 70
     0
  9
$DIMSE1
 70
     0
  9
$DIMSE2
 70
     0
  9
$DIMTAD
 70
     1
  9
$DIMZIN
 70
     8
  9
$DIMBLK
  1

  9
$DIMASO
 70
     1
  9
$DIMSHO
 70
     1
  9
$DIMPOST
  1

  9
$DIMAPOST
  1

  9
$DIMALT
 70
     0
  9
$DIMALTD
 70
     3
  9
$DIMALTF
 40
0.0393700787
  9
$DIMLFAC
 40
1.0
  9
$DIMTOFL
 70
     1
  9
$DIMTVP
 40
0.0
  9
$DIMTIX
 70
     0
  9
$DIMSOXD
 70
     0
  9
$DIMSAH
 70
     0
  9
$DIMBLK1
  1

  9
$DIMBLK2
  1

  9
$DIMSTYLE
  2
ISO-25
  9
$DIMCLRD
 70
     0
  9
$DIMCLRE
 70
     0
  9
$DIMCLRT
 70
     0
  9
$DIMTFAC
 40
1.0
  9
$DIMGAP
 40
0.625
  9
$DIMJUST
 70
     0
  9
$DIMSD1
 70
     0
  9
$DIMSD2
 70
     0
  9
$DIMTOLJ
 70
     0
  9
$DIMTZIN
 70
     8
  9
$DIMALTZ
 70
     0
  9
$DIMALTTZ
 70
     0
  9
$DIMUPT
 70
     0
  9
$DIMDEC
 70
     2
  9
$DIMTDEC
 70
     2
  9
$DIMALTU
 70
     2
  9
$DIMALTTD
 70
     3
  9
$DIMTXSTY
  7
Standard
  9
$DIMAUNIT
 70
     0
  9
$DIMADEC
 70
     0
  9
$DIMALTRND
 40
0.0
  9
$DIMAZIN
 70
     0
  9
$DIMDSEP
 70
    44
  9
$DIMATFIT
 70
     3
  9
$DIMFRAC
 70
     0
  9
$DIMLDRBLK
  1

  9
$DIMLUNIT
 70
     2
  9
$DIMLWD
 70
    -2
  9
$DIMLWE
 70
    -2
  9
$DIMTMOVE
 70
     0
  9
$LUNITS
 70
     2
  9
$LUPREC
 70
     4
  9
$SKETCHINC
 40
1.0
  9
$FILLETRAD
 40
10.0
  9
$AUNITS
 70
     0
  9
$AUPREC
 70
     0
  9
$MENU
  1
.
  9
$ELEVATION
 40
0.0
  9
$PELEVATION
 40
0.0
  9
$THICKNESS
 40
0.0
  9
$LIMCHECK
 70
     0
  9
$CHAMFERA
 40
10.0
  9
$CHAMFERB
 40
10.0
  9
$CHAMFERC
 40
20.0
  9
$CHAMFERD
 40
0.0
  9
$SKPOLY
 70
     0
  9
$TDCREATE
 40
2457310.389914745
  9
$TDUCREATE
 40
2457310.306581412
  9
$TDUPDATE
 40
2457310.389916181
  9
$TDUUPDATE
 40
2457310.306582847
  9
$TDINDWG
 40
0.0000000116
  9
$TDUSRTIMER
 40
0.0000000116
  9
$USRTIMER
 70
     1
  9
$ANGBASE
 50
0.0
  9
$ANGDIR
 70
     0
  9
$PDMODE
 70
     0
  9
$PDSIZE
 40
0.0
  9
$PLINEWID
 40
0.0
  9
$SPLFRAME
 70
     0
  9
$SPLINETYPE
 70
     6
  9
$SPLINESEGS
 70
     8
  9
$HANDSEED
  5
21C
  9
$SURFTAB1
 70
     6
  9
$SURFTAB2
 70
     6
  9
$SURFTYPE
 70
     6
  9
$SURFU
 70
     6
  9
$SURFV
 70
     6
  9
$UCSBASE
  2

  9
$UCSNAME
  2

  9
$UCSORG
 10
0.0
 20
0.0
 30
0.0
  9
$UCSXDIR
 10
1.0
 20
0.0
 30
0.0
  9
$UCSYDIR
 10
0.0
 20
1.0
 30
0.0
  9
$UCSORTHOREF
  2

  9
$UCSORTHOVIEW
 70
     0
  9
$UCSORGTOP
 10
0.0
 20
0.0
 30
0.0
  9
$UCSORGBOTTOM
 10
0.0
 20
0.0
 30
0.0
  9
$UCSORGLEFT
 10
0.0
 20
0.0
 30
0.0
  9
$UCSORGRIGHT
 10
0.0
 20
0.0
 30
0.0
  9
$UCSORGFRONT
 10
0.0
 20
0.0
 30
0.0
  9
$UCSORGBACK
 10
0.0
 20
0.0
 30
0.0
  9
$PUCSBASE
  2

  9
$PUCSNAME
  2

  9
$PUCSORG
 10
0.0
 20
0.0
 30
0.0
  9
$PUCSXDIR
 10
1.0
 20
0.0
 30
0.0
  9
$PUCSYDIR
 10
0.0
 20
1.0
 30
0.0
  9
$PUCSORTHOREF
  2

  9
$PUCSORTHOVIEW
 70
     0
  9
$PUCSORGTOP
 10
0.0
 20
0.0
 30
0.0
  9
$PUCSORGBOTTOM
 10
0.0
 20
0.0
 30
0.0
  9
$PUCSORGLEFT
 10
0.0
 20
0.0
 30
0.0
  9
$PUCSORGRIGHT
 10
0.0
 20
0.0
 30
0.0
  9
$PUCSORGFRONT
 10
0.0
 20
0.0
 30
0.0
  9
$PUCSORGBACK
 10
0.0
 20
0.0
 30
0.0
  9
$USERI1
 70
     0
  9
$USERI2
 70
     0
  9
$USERI3
 70
     0
  9
$USERI4
 70
     0
  9
$USERI5
 70
     0
  9
$USERR1
 40
0.0
  9
$USERR2
 40
0.0
  9
$USERR3
 40
0.0
  9
$USERR4
 40
0.0
  9
$USERR5
 40
0.0
  9
$WORLDVIEW
 70
     1
  9
$SHADEDGE
 70
     3
  9
$SHADEDIF
 70
    70
  9
$TILEMODE
 70
     1
  9
$MAXACTVP
 70
    64
  9
$PINSBASE
 10
0.0
 20
0.0
 30
0.0
  9
$PLIMCHECK
 70
     0
  9
$PEXTMIN
 10
0.0
 20
0.0
 30
0.0
  9
$PEXTMAX
 10
297.0
 20
210.0
 30
0.0
  9
$PLIMMIN
 10
0.0
 20
0.0
  9
$PLIMMAX
 10
297.0
 20
210.0
  9
$UNITMODE
 70
     0
  9
$VISRETAIN
 70
     1
  9
$PLINEGEN
 70
     0
  9
$PSLTSCALE
 70
     1
  9
$TREEDEPTH
 70
  3020
  9
$CMLSTYLE
  2
Standard
  9
$CMLJUST
 70
     0
  9
$CMLSCALE
 40
20.0
  9
$PROXYGRAPHICS
 70
     1
  9
$MEASUREMENT
 70
     1
  9
$CELWEIGHT
370
    -1
  9
$ENDCAPS
280
     0
  9
$JOINSTYLE
280
     0
  9
$LWDISPLAY
290
     0
  9
$INSUNITS
 70
     4
  9
$HYPERLINKBASE
  1

  9
$STYLESHEET
  1

  9
$XEDIT
290
     1
  9
$CEPSNTYPE
380
     0
  9
$PSTYLEMODE
290
     1
  9
$FINGERPRINTGUID
  2
{D8E88F39-F464-42BE-A8A1-B0F2F8C956CB}
  9
$VERSIONGUID
  2
{FAEB1C32-E019-11D5-929B-00C0DF256EC4}
  9
$EXTNAMES
290
     1
  9
$PSVPSCALE
 40
0.0
  9
$OLESTARTUP
290
     0
  0
ENDSEC
  0
SECTION
  2
CLASSES
  0
CLASS
  1
ACDBDICTIONARYWDFLT
  2
AcDbDictionaryWithDefault
  3
ObjectDBX Classes
 90
        0
280
     0
281
     0
  0
CLASS
  1
VISUALSTYLE
  2
AcDbVisualStyle
  3
ObjectDBX Classes
 90
     4095
280
     0
281
     0
  0
CLASS
  1
MATERIAL
  2
AcDbMaterial
  3
ObjectDBX Classes
 90
     1153
280
     0
281
     0
  0
CLASS
  1
DICTIONARYVAR
  2
AcDbDictionaryVar
  3
ObjectDBX Classes
 90
        0
280
     0
281
     0
  0
CLASS
  1
ACDBPLACEHOLDER
  2
AcDbPlaceHolder
  3
ObjectDBX Classes
 90
        0
280
     0
281
     0
  0
CLASS
  1
LAYOUT
  2
AcDbLayout
  3
ObjectDBX Classes
 90
        0
280
     0
281
     0
  0
ENDSEC
  0
SECTION
  2
TABLES
  0
TABLE
  2
VPORT
  5
8
330
0
100
AcDbSymbolTable
 70
     1
  0
VPORT
  5
29
330
8
100
AcDbSymbolTableRecord
100
AcDbViewportTableRecord
  2
*Active
 70
     0
 10
0.0
 20
0.0
 11
1.0
 21
1.0
 12
344.1869158879
 22
148.5
 13
0.0
 23
0.0
 14
10.0
 24
10.0
 15
10.0
 25
10.0
 16
0.0
 26
0.0
 36
1.0
 17
0.0
 27
0.0
 37
0.0
 40
297.0
 41
1.9729729729
 42
50.0
 43
0.0
 44
0.0
 50
0.0
 51
0.0
 71
     0
 72
   100
 73
     1
 74
     3
 75
     0
 76
     0
 77
     0
 78
     0
281
     0
 65
     1
110
0.0
120
0.0
130
0.0
111
1.0
121
0.0
131
0.0
112
0.0
122
1.0
132
0.0
 79
     0
146
0.0
  0
ENDTAB
  0
TABLE
  2
LTYPE
  5
5
330
0
100
AcDbSymbolTable
 70
     1
  0
LTYPE
  5
14
330
5
100
AcDbSymbolTableRecord
100
AcDbLinetypeTableRecord
  2
ByBlock
 70
     0
  3

 72
    65
 73
     0
 40
0.0
  0
LTYPE
  5
15
330
5
100
AcDbSymbolTableRecord
100
AcDbLinetypeTableRecord
  2
ByLayer
 70
     0
  3

 72
    65
 73
     0
 40
0.0
  0
LTYPE
  5
16
330
5
100
AcDbSymbolTableRecord
100
AcDbLinetypeTableRecord
  2
Continuous
 70
     0
  3
Solid line
 72
    65
 73
     0
 40
0.0
  0
ENDTAB
  0
TABLE
  2
LAYER
  5
2
330
0
100
AcDbSymbolTable
 70
     3
  0
LAYER
  5
10
330
2
100
AcDbSymbolTableRecord
100
AcDbLayerTableRecord
  2
0
 70
     0
 62
     7
  6
Continuous
370
    -3
390
F
  0
LAYER
  5
3F
330
2
100
AcDbSymbolTableRecord
100
AcDbLayerTableRecord
  2
Default
 70
     0
 62
     7
  6
Continuous
370
    -3
390
F
  0
LAYER
  5
42
330
2
100
AcDbSymbolTableRecord
100
AcDbLayerTableRecord
  2
0012877
 70
     0
 62
     7
  6
Continuous
370
    -3
390
F
  0
ENDTAB
  0
TABLE
  2
STYLE
  5
3
330
0
100
AcDbSymbolTable
 70
     4
  0
STYLE
  5
11
330
3
100
AcDbSymbolTableRecord
100
AcDbTextStyleTableRecord
  2
Standard
 70
     0
 40
0.0
 41
1.0
 50
0.0
 71
     0
 42
2.5
  3
txt
  4

  0
STYLE
  5
16B
330
3
100
AcDbSymbolTableRecord
100
AcDbTextStyleTableRecord
  2
SEACAD_Solid_Edge_ISO
 70
     0
 40
0.0
 41
1.0
 50
0.0
 71
     0
 42
0.2
  3
seiso.ttf
  4

1001
ACAD
1000
Solid Edge ISO
1071
        0
  0
STYLE
  5
184
330
3
100
AcDbSymbolTableRecord
100
AcDbTextStyleTableRecord
  2
SEACAD_Solid_Edge_ANSIB
 70
     0
 40
0.0
 41
1.0
 50
0.0
 71
     0
 42
0.2
  3
seansbd.ttf
  4

1001
ACAD
1000
Solid Edge ANSI
1071
 33554432
  0
STYLE
  5
189
330
3
100
AcDbSymbolTableRecord
100
AcDbTextStyleTableRecord
  2
SEACAD_Solid_Edge_ANSI
 70
     0
 40
0.0
 41
1.0
 50
0.0
 71
     0
 42
0.2
  3
seans.ttf
  4

1001
ACAD
1000
Solid Edge ANSI
1071
        0
  0
ENDTAB
  0
TABLE
  2
VIEW
  5
6
330
0
100
AcDbSymbolTable
 70
     0
  0
ENDTAB
  0
TABLE
  2
UCS
  5
7
330
0
100
AcDbSymbolTable
 70
     0
  0
ENDTAB
  0
TABLE
  2
APPID
  5
9
330
0
100
AcDbSymbolTable
 70
     1
  0
APPID
  5
12
330
9
100
AcDbSymbolTableRecord
100
AcDbRegAppTableRecord
  2
ACAD
 70
     0
  0
ENDTAB
  0
TABLE
  2
DIMSTYLE
  5
A
330
0
100
AcDbSymbolTable
 70
     1
100
AcDbDimStyleTable
  0
DIMSTYLE
105
27
330
A
100
AcDbSymbolTableRecord
100
AcDbDimStyleTableRecord
  2
ISO-25
 70
     0
 41
2.5
 42
0.625
 43
3.75
 44
1.25
 73
     0
 74
     0
 77
     1
 78
     8
140
2.5
141
2.5
143
0.0393700787
147
0.625
171
     3
172
     1
178
     0
271
     2
272
     2
274
     3
278
    44
283
     0
284
     8
340
11
  0
ENDTAB
  0
TABLE
  2
BLOCK_RECORD
  5
1
330
0
100
AcDbSymbolTable
 70
    12
  0
BLOCK_RECORD
  5
1F
330
1
100
AcDbSymbolTableRecord
100
AcDbBlockTableRecord
  2
*Model_Space
340
22
  0
BLOCK_RECORD
  5
1B
330
1
100
AcDbSymbolTableRecord
100
AcDbBlockTableRecord
  2
*Paper_Space
340
1E
  0
BLOCK_RECORD
  5
40
330
1
100
AcDbSymbolTableRecord
100
AcDbBlockTableRecord
  2
SE
340
0
102
{BLKREFS
331
41
102
}
  0
BLOCK_RECORD
  5
15C
330
1
100
AcDbSymbolTableRecord
100
AcDbBlockTableRecord
  2
SE1
340
0
102
{BLKREFS
331
15D
102
}
  0
BLOCK_RECORD
  5
164
330
1
100
AcDbSymbolTableRecord
100
AcDbBlockTableRecord
  2
GDimGGroup
340
0
102
{BLKREFS
331
165
102
}
  0
BLOCK_RECORD
  5
16F
330
1
100
AcDbSymbolTableRecord
100
AcDbBlockTableRecord
  2
GDimGGroup1
340
0
102
{BLKREFS
331
170
102
}
  0
BLOCK_RECORD
  5
179
330
1
100
AcDbSymbolTableRecord
100
AcDbBlockTableRecord
  2
GDimGGroup2
340
0
102
{BLKREFS
331
17A
102
}
  0
BLOCK_RECORD
  5
183
330
1
100
AcDbSymbolTableRecord
100
AcDbBlockTableRecord
  2
SEANNOT_GROUP
340
0
102
{BLKREFS
331
1E0
102
}
  0
BLOCK_RECORD
  5
188
330
1
100
AcDbSymbolTableRecord
100
AcDbBlockTableRecord
  2
SEANNOT_GROUP1
340
0
102
{BLKREFS
331
1E1
102
}
  0
BLOCK_RECORD
  5
18D
330
1
100
AcDbSymbolTableRecord
100
AcDbBlockTableRecord
  2
SEANNOT_GROUP2
340
0
102
{BLKREFS
331
1E3
102
}
  0
BLOCK_RECORD
  5
191
330
1
100
AcDbSymbolTableRecord
100
AcDbBlockTableRecord
  2
SEANNOT_GROUP3
340
0
102
{BLKREFS
331
1E4
102
}
  0
BLOCK_RECORD
  5
195
330
1
100
AcDbSymbolTableRecord
100
AcDbBlockTableRecord
  2
Block1
340
0
102
{BLKREFS
331
1E5
102
}
  0
BLOCK_RECORD
  5
1DD
330
1
100
AcDbSymbolTableRecord
100
AcDbBlockTableRecord
  2
RF-Massblatt_2016
340
0
102
{BLKREFS
331
1E8
102
}
  0
ENDTAB
  0
ENDSEC
  0
SECTION
  2
BLOCKS
  0
BLOCK
  5
20
330
1F
100
AcDbEntity
  8
0
100
AcDbBlockBegin
  2
*Model_Space
 70
     0
 10
0.0
 20
0.0
 30
0.0
  3
*Model_Space
  1

  0
ENDBLK
  5
21
330
1F
100
AcDbEntity
  8
0
100
AcDbBlockEnd
  0
BLOCK
  5
1C
330
1B
100
AcDbEntity
 67
     1
  8
0
100
AcDbBlockBegin
  2
*Paper_Space
 70
     0
 10
0.0
 20
0.0
 30
0.0
  3
*Paper_Space
  1

  0
ENDBLK
  5
1D
330
1B
100
AcDbEntity
 67
     1
  8
0
100
AcDbBlockEnd
  0
BLOCK
  5
15A
330
40
100
AcDbEntity
  8
0
100
AcDbBlockBegin
  2
SE
 70
     0
 10
0.0
 20
0.0
 30
0.0
  3
SE
  1

  0
LINE
  5
43
330
40
100
AcDbEntity
  8
0012877
  6
Continuous
 62
     7
100
AcDbLine
 10
66.381583141
 20
98.9411435055
 30
0.0
 11
234.881583141
 21
98.9411435055
 31
0.0
  0
LINE
  5
44
330
40
100
AcDbEntity
  8
0012877
  6
Continuous
 62
     7
100
AcDbLine
 10
234.881583141
 20
98.9411435055
 30
0.0
 11
234.881583141
 21
148.9411435055
 31
0.0
  0
LINE
  5
45
330
40
100
AcDbEntity
  8
0012877
  6
Continuous
 62
     7
100
AcDbLine
 10
234.881583141
 20
148.9411435055
 30
0.0
 11
66.381583141
 21
148.9411435055
 31
0.0
  0
LINE
  5
46
330
40
100
AcDbEntity
  8
0012877
  6
Continuous
 62
     7
100
AcDbLine
 10
66.381583141
 20
148.9411435055
 30
0.0
 11
66.381583141
 21
98.9411435055
 31
0.0
  0
ARC
  5
47
330
40
100
AcDbEntity
  8
0012877
  6
Continuous
 62
     7
100
AcDbCircle
 10
73.631583141
 20
145.1411435055
 30
0.0
 40
1.049999999999995
100
AcDbArc
 50
0.0
 51
180.0
  0
LINE
  5
48
330
40
100
AcDbEntity
  8
0012877
  6
Continuous
 62
     7
100
AcDbLine
 10
72.581583141
 20
145.1411435055
 30
0.0
 11
72.581583141
 21
132.2411435055
 31
0.0
  0
ARC
  5
49
330
40
100
AcDbEntity
  8
0012877
  6
Continuous
 62
     7
100
AcDbCircle
 10
73.631583141
 20
132.2411435055
 30
0.0
 40
1.049999999999995
100
AcDbArc
 50
180.0
 51
0.0
  0
LINE
  5
4A
330
40
100
AcDbEntity
  8
0012877
  6
Continuous
 62
     7
100
AcDbLine
 10
74.681583141
 20
132.2411435055
 30
0.0
 11
74.681583141
 21
145.1411435055
 31
0.0
  0
LINE
  5
4B
330
40
100
AcDbEntity
  8
0012877
  6
Continuous
 62
     7
100
AcDbLine
 10
79.2083054479
 20
102.7098623291
 30
0.0
 11
79.0573753645
 21
102.7098623291
 31
0.0
  0
SPLINE
  5
4C
330
40
100
AcDbEntity
  8
0012877
  6
Continuous
 62
     7
100
AcDbSpline
210
0.0
220
0.0
230
1.0
 70
     8
 71
     3
 72
    18
 73
    14
 74
     0
 42
0.0000000120863276
 43
0.0000000001
 12
1.0
 22
0.0
 32
0.0
 13
1.0
 23
0.0
 33
0.0
 40
0.0
 40
0.0
 40
0.0
 40
0.0
 40
0.6230771547734102
 40
0.6230771547734102
 40
0.6230771547734102
 40
0.7034771442276936
 40
0.7034771442276936
 40
0.8213971287606422
 40
0.8213971287606422
 40
0.8213971287606422
 40
0.8938736562200903
 40
0.8938736562200903
 40
1.0
 40
1.0
 40
1.0
 40
1.0
 10
79.05737536449216
 20
102.7098623291068
 30
0.0
 10
79.02235291420352
 20
102.5422548884397
 30
0.0
 10
78.98733046391486
 20
102.3746474477726
 30
0.0
 10
78.95230801362622
 20
102.2070400071055
 30
0.0
 10
78.93889457713358
 20
102.1428471324623
 30
0.0
 10
78.93229518488985
 20
102.1044742598317
 30
0.0
 10
78.93229518488985
 20
102.0736211488631
 30
0.0
 10
78.93813225993797
 20
102.0594453951748
 30
0.0
 10
78.94813867430615
 20
102.0494389808066
 30
0.0
 10
78.95814508867434
 20
102.0394325664384
 30
0.0
 10
78.97649018168266
 20
102.0352632271184
 30
0.0
 10
79.03402706429972
 20
102.0352632271184
 30
0.0
 10
79.06488017526829
 20
102.0385986985744
 30
0.0
 10
79.09156394691678
 20
102.0444357736225
 30
0.0
  0
LINE
  5
4D
330
40
100
AcDbEntity
  8
0012877
  6
Continuous
 62
     7
100
AcDbLine
 10
79.0915639469
 20
102.0444357736
 30
0.0
 11
79.0657140431
 21
101.9185217262
 31
0.0
  0
SPLINE
  5
4E
330
40
100
AcDbEntity
  8
0012877
  6
Continuous
 62
     7
100
AcDbSpline
210
0.0
220
0.0
230
1.0
 70
     8
 71
     3
 72
    18
 73
    14
 74
     0
 42
0.0000000094465995
 43
0.0000000001
 12
1.0
 22
0.0
 32
0.0
 13
1.0
 23
0.0
 33
0.0
 40
0.0
 40
0.0
 40
0.0
 40
0.0
 40
0.0919913534692639
 40
0.0919913534692639
 40
0.2518810868801276
 40
0.2518810868801276
 40
0.2518810868801276
 40
0.4099000133378541
 40
0.4099000133378541
 40
0.4856174155988479
 40
0.4856174155988479
 40
0.4856174155988479
 40
1.0
 40
1.0
 40
1.0
 40
1.0
 10
79.06571404313233
 20
101.9185217261562
 30
0.0
 10
79.02902385711565
 20
101.9085153117881
 30
0.0
 10
78.99316753896298
 20
101.9035121046039
 30
0.0
 10
78.89727273460122
 20
101.9035121046039
 30
0.0
 10
78.8480745306243
 20
101.9185217261562
 30
0.0
 10
78.81221821247162
 20
101.9485409692608
 30
0.0
 10
78.78454785184954
 20
101.9717068525723
 30
0.0
 10
78.77135868713488
 20
102.0027423804218
 30
0.0
 10
78.77135868713488
 20
102.0619469987669
 30
0.0
 10
78.778863497911
 20
102.1086435991517
 30
0.0
 10
78.7930392515993
 20
102.1803562354571
 30
0.0
 10
78.82799688769525
 20
102.3572007474719
 30
0.0
 10
78.86641962363262
 20
102.5333602978902
 30
0.0
 10
78.90310980964931
 20
102.7098623291068
 30
0.0
  0
LINE
  5
4F
330
40
100
AcDbEntity
  8
0012877
  6
Continuous
 62
     7
100
AcDbLine
 10
78.9031098096
 20
102.7098623291
 30
0.0
 11
78.7813651015
 21
102.7098623291
 31
0.0
  0
LINE
  5
50
330
40
100
AcDbEntity
  8
0012877
  6
Continuous
 62
     7
100
AcDbLine
 10
78.7813651015
 20
102.7098623291
 30
0.0
 11
78.8055472696
 21
102.8291054337
 31
0.0
  0
LINE
  5
51
330
40
100
AcDbEntity
  8
0012877
  6
Continuous
 62
     7
100
AcDbLine
 10
78.8055472696
 20
102.8291054337
 30
0.0
 11
78.9281258456
 21
102.8291054337
 31
0.0
  0
LINE
  5
52
330
40
100
AcDbEntity
  8
0012877
  6
Continuous
 62
     7
100
AcDbLine
 10
78.9281258456
 20
102.8291054337
 30
0.0
 11
78.9739885781
 21
103.0509142855
 31
0.0
  0
LINE
  5
53
330
40
100
AcDbEntity
  8
0012877
  6
Continuous
 62
     7
100
AcDbLine
 10
78.9739885781
 20
103.0509142855
 30
0.0
 11
79.1499346974
 21
103.1568155042
 31
0.0
  0
LINE
  5
54
330
40
100
AcDbEntity
  8
0012877
  6
Continuous
 62
     7
100
AcDbLine
 10
79.1499346974
 20
103.1568155042
 30
0.0
 11
79.0815575325
 21
102.8291054337
 31
0.0
  0
LINE
  5
55
330
40
100
AcDbEntity
  8
0012877
  6
Continuous
 62
     7
100
AcDbLine
 10
79.0815575325
 20
102.8291054337
 30
0.0
 11
79.2333214838
 21
102.8291054337
 31
0.0
  0
LINE
  5
56
330
40
100
AcDbEntity
  8
0012877
  6
Continuous
 62
     7
100
AcDbLine
 10
79.2333214838
 20
102.8291054337
 30
0.0
 11
79.2083054479
 21
102.7098623291
 31
0.0
  0
LINE
  5
57
330
40
100
AcDbEntity
  8
0012877
  6
Continuous
 62
     7
100
AcDbLine
 10
73.7187612539
 20
102.1536919097
 30
0.0
 11
73.7187612539
 21
101.1106354313
 31
0.0
  0
LINE
  5
58
330
40
100
AcDbEntity
  8
0012877
  6
Continuous
 62
     7
100
AcDbLine
 10
73.7187612539
 20
101.1106354313
 30
0.0
 11
73.4064688951
 21
101.1106354313
 31
0.0
  0
LINE
  5
59
330
40
100
AcDbEntity
  8
0012877
  6
Continuous
 62
     7
100
AcDbLine
 10
73.4064688951
 20
101.1106354313
 30
0.0
 11
73.4064688951
 21
103.4606354313
 31
0.0
  0
SPLINE
  5
5A
330
40
100
AcDbEntity
  8
0012877
  6
Continuous
 62
     7
100
AcDbSpline
210
0.0
220
0.0
230
1.0
 70
     8
 71
     3
 72
    21
 73
    17
 74
     0
 42
0.0000000030240066
 43
0.0000000001
 12
1.0
 22
0.0
 32
0.0
 13
1.0
 23
0.0
 33
0.0
 40
0.0
 40
0.0
 40
0.0
 40
0.0
 40
0.3188524755255804
 40
0.3188524755255804
 40
0.3188524755255804
 40
0.4466871992896583
 40
0.4466871992896583
 40
0.5745219230537378
 40
0.5745219230537378
 40
0.5745219230537378
 40
0.6851965081129122
 40
0.6851965081129122
 40
0.8296133447145184
 40
0.8296133447145184
 40
0.8296133447145184
 40
1.0
 40
1.0
 40
1.0
 40
1.0
 10
73.40646889505786
 20
103.4606354313302
 30
0.0
 10
73.75415438785963
 20
103.4606354313302
 30
0.0
 10
74.10183988066139
 20
103.4606354313302
 30
0.0
 10
74.44952537346316
 20
103.4606354313302
 30
0.0
 10
74.65876125386184
 20
103.4606354313302
 30
0.0
 10
74.81803035685188
 20
103.4403364280079
 30
0.0
 10
75.03663500801466
 20
103.3560174911308
 30
0.0
 10
75.12407686847978
 20
103.2810673250179
 30
0.0
 10
75.18965826382862
 20
103.1733264612305
 30
0.0
 10
75.25454615476687
 20
103.0667249261176
 30
0.0
 10
75.28803035685188
 20
102.9484759628916
 30
0.0
 10
75.28803035685188
 20
102.6533596838218
 30
0.0
 10
75.23337919406117
 20
102.51282812236
 30
0.0
 10
75.12563833027379
 20
102.3988414113966
 30
0.0
 10
75.01711797361659
 20
102.2840300195709
 30
0.0
 10
74.85082105452628
 20
102.2114659961142
 30
0.0
 10
74.6244090943934
 20
102.1802367602338
 30
0.0
  0
SPLINE
  5
5B
330
40
100
AcDbEntity
  8
0012877
  6
Continuous
 62
     7
100
AcDbSpline
210
0.0
220
0.0
230
1.0
 70
     8
 71
     3
 72
    14
 73
    10
 74
     0
 42
0.0000000091501819
 43
0.0000000001
 12
1.0
 22
0.0
 32
0.0
 13
1.0
 23
0.0
 33
0.0
 40
0.0
 40
0.0
 40
0.0
 40
0.0
 40
0.2031950052268679
 40
0.2031950052268679
 40
0.2031950052268679
 40
0.575352570870757
 40
0.575352570870757
 40
0.575352570870757
 40
1.0
 40
1.0
 40
1.0
 40
1.0
 10
74.6244090943934
 20
102.1802367602338
 30
0.0
 10
74.70716656947646
 20
102.1412002153833
 30
0.0
 10
74.76962504123726
 20
102.1006022087388
 30
0.0
 10
74.81178450967579
 20
102.0631271256823
 30
0.0
 10
74.90424458528582
 20
101.9809403918067
 30
0.0
 10
74.98822969240004
 20
101.8741902486059
 30
0.0
 10
75.06942570568907
 20
101.7508347668783
 30
0.0
 10
75.15431618296371
 20
101.621866541788
 30
0.0
 10
75.23680529196372
 20
101.4913176692258
 30
0.0
 10
75.31909178823652
 20
101.3606354313302
 30
0.0
  0
LINE
  5
5C
330
40
100
AcDbEntity
  8
0012877
  6
Continuous
 62
     7
100
AcDbLine
 10
81.4194075243
 20
101.1106354313
 30
0.0
 11
75.0881632472
 21
101.1106354313
 31
0.0
  0
LINE
  5
5D
330
40
100
AcDbEntity
  8
0012877
  6
Continuous
 62
     7
100
AcDbLine
 10
73.7187612539
 20
103.2014327735
 30
0.0
 11
73.7187612539
 21
102.4222633383
 31
0.0
  0
SPLINE
  5
5E
330
40
100
AcDbEntity
  8
0012877
  6
Continuous
 62
     7
100
AcDbSpline
210
0.0
220
0.0
230
1.0
 70
     8
 71
     3
 72
    25
 73
    21
 74
     0
 42
0.000000003387477
 43
0.0000000001
 12
1.0
 22
0.0
 32
0.0
 13
1.0
 23
0.0
 33
0.0
 40
0.0
 40
0.0
 40
0.0
 40
0.0
 40
0.2284802880085945
 40
0.2284802880085945
 40
0.2284802880085945
 40
0.3442035663753351
 40
0.3442035663753351
 40
0.3442035663753351
 40
0.424907704947
 40
0.424907704947
 40
0.424907704947
 40
0.4990904865566665
 40
0.4990904865566665
 40
0.6065798231747555
 40
0.6065798231747555
 40
0.6065798231747555
 40
0.7458944041694316
 40
0.7458944041694316
 40
0.7458944041694316
 40
1.0
 40
1.0
 40
1.0
 40
1.0
 10
73.71876125386184
 20
102.4222633383069
 30
0.0
 10
73.94152980314202
 20
102.4222633383069
 30
0.0
 10
74.1642983524222
 20
102.4222633383069
 30
0.0
 10
74.38706690170237
 20
102.4222633383069
 30
0.0
 10
74.52915992495818
 20
102.4222633383069
 30
0.0
 10
74.64158517412761
 20
102.4378779562471
 30
0.0
 10
74.72121972562263
 20
102.4659842685394
 30
0.0
 10
74.80134433589608
 20
102.4942635427536
 30
0.0
 10
74.86331274887844
 20
102.5424958964464
 30
0.0
 10
74.90391075552297
 20
102.6080772917953
 30
0.0
 10
74.94424254573048
 20
102.6732286452074
 30
0.0
 10
74.96636922728376
 20
102.742363006081
 30
0.0
 10
74.96636922728376
 20
102.9297384213634
 30
0.0
 10
74.92733268243326
 20
103.0218646672106
 30
0.0
 10
74.84613666914423
 20
103.0921304479415
 30
0.0
 10
74.76416801457839
 20
103.1630648605465
 30
0.0
 10
74.63690078874556
 20
103.1998713117288
 30
0.0
 10
74.46201706781532
 20
103.2014327735228
 30
0.0
 10
74.21428487888926
 20
103.2036446680668
 30
0.0
 10
73.96651319184633
 20
103.2014327735228
 30
0.0
 10
73.71876125386184
 20
103.2014327735228
 30
0.0
  0
SPLINE
  5
5F
330
40
100
AcDbEntity
  8
0012877
  6
Continuous
 62
     7
100
AcDbSpline
210
0.0
220
0.0
230
1.0
 70
     8
 71
     3
 72
    22
 73
    18
 74
     0
 42
0.0000000052921632
 43
0.0000000001
 12
1.0
 22
0.0
 32
0.0
 13
1.0
 23
0.0
 33
0.0
 40
0.0
 40
0.0
 40
0.0
 40
0.0
 40
0.3068698414100483
 40
0.3068698414100483
 40
0.3068698414100483
 40
0.5162606884525387
 40
0.5162606884525387
 40
0.5162606884525387
 40
0.6164695960135068
 40
0.6164695960135068
 40
0.7166785035744724
 40
0.7166785035744724
 40
0.7166785035744724
 40
0.8088759039826804
 40
0.8088759039826804
 40
0.8088759039826804
 40
1.0
 40
1.0
 40
1.0
 40
1.0
 10
75.08816324721731
 20
101.1106354313302
 30
0.0
 10
74.98458628154734
 20
101.2735479451729
 30
0.0
 10
74.88100931587734
 20
101.4364604590156
 30
0.0
 10
74.77743235020735
 20
101.5993729728584
 30
0.0
 10
74.68728492830894
 20
101.7411626364474
 30
0.0
 10
74.61191740004124
 20
101.8492068599016
 30
0.0
 10
74.55258185186848
 20
101.9241570260145
 30
0.0
 10
74.49400620399248
 20
101.9981473180684
 30
0.0
 10
74.44171806449307
 20
102.0506354313302
 30
0.0
 10
74.34803035685187
 20
102.1099709795029
 30
0.0
 10
74.30118650303127
 20
102.1302699828252
 30
0.0
 10
74.25278118741666
 20
102.1412002153833
 30
0.0
 10
74.21693249822879
 20
102.1492950806838
 30
0.0
 10
74.15909347977545
 20
102.1521304479415
 30
0.0
 10
74.07945892828045
 20
102.1536919097355
 30
0.0
 10
73.95927257788807
 20
102.1560485048412
 30
0.0
 10
73.83899381200138
 20
102.1536919097355
 30
0.0
 10
73.71876125386184
 20
102.1536919097355
 30
0.0
  0
LINE
  5
60
330
40
100
AcDbEntity
  8
0012877
  6
Continuous
 62
     7
100
AcDbLine
 10
72.9723825163
 20
101.3885756307
 30
0.0
 11
72.9723825163
 21
101.1106354313
 31
0.0
  0
LINE
  5
61
330
40
100
AcDbEntity
  8
0012877
  6
Continuous
 62
     7
100
AcDbLine
 10
72.9723825163
 20
101.1106354313
 30
0.0
 11
71.2297911542
 21
101.1106354313
 31
0.0
  0
LINE
  5
62
330
40
100
AcDbEntity
  8
0012877
  6
Continuous
 62
     7
100
AcDbLine
 10
71.2297911542
 20
101.1106354313
 30
0.0
 11
71.2297911542
 21
103.4606354313
 31
0.0
  0
LINE
  5
63
330
40
100
AcDbEntity
  8
0012877
  6
Continuous
 62
     7
100
AcDbLine
 10
71.2297911542
 20
103.4606354313
 30
0.0
 11
72.9177313535
 21
103.4606354313
 31
0.0
  0
LINE
  5
64
330
40
100
AcDbEntity
  8
0012877
  6
Continuous
 62
     7
100
AcDbLine
 10
72.9177313535
 20
103.4606354313
 30
0.0
 11
72.9177313535
 21
103.182695232
 31
0.0
  0
LINE
  5
65
330
40
100
AcDbEntity
  8
0012877
  6
Continuous
 62
     7
100
AcDbLine
 10
72.9177313535
 20
103.182695232
 30
0.0
 11
71.5405220512
 21
103.182695232
 31
0.0
  0
LINE
  5
66
330
40
100
AcDbEntity
  8
0012877
  6
Continuous
 62
     7
100
AcDbLine
 10
71.5405220512
 20
103.182695232
 30
0.0
 11
71.5405220512
 21
102.4691071921
 31
0.0
  0
LINE
  5
67
330
40
100
AcDbEntity
  8
0012877
  6
Continuous
 62
     7
100
AcDbLine
 10
71.5405220512
 20
102.4691071921
 30
0.0
 11
72.8302894931
 21
102.4691071921
 31
0.0
  0
LINE
  5
68
330
40
100
AcDbEntity
  8
0012877
  6
Continuous
 62
     7
100
AcDbLine
 10
72.8302894931
 20
102.4691071921
 30
0.0
 11
72.8302894931
 21
102.189605531
 31
0.0
  0
LINE
  5
69
330
40
100
AcDbEntity
  8
0012877
  6
Continuous
 62
     7
100
AcDbLine
 10
72.8302894931
 20
102.189605531
 30
0.0
 11
71.5405220512
 21
102.189605531
 31
0.0
  0
LINE
  5
6A
330
40
100
AcDbEntity
  8
0012877
  6
Continuous
 62
     7
100
AcDbLine
 10
71.5405220512
 20
102.189605531
 30
0.0
 11
71.5405220512
 21
101.3885756307
 31
0.0
  0
LINE
  5
6B
330
40
100
AcDbEntity
  8
0012877
  6
Continuous
 62
     7
100
AcDbLine
 10
71.5405220512
 20
101.3885756307
 30
0.0
 11
72.9723825163
 21
101.3885756307
 31
0.0
  0
SPLINE
  5
6C
330
40
100
AcDbEntity
  8
0012877
  6
Continuous
 62
     7
100
AcDbSpline
210
0.0
220
0.0
230
1.0
 70
    11
 71
     3
 72
    33
 73
    29
 74
     0
 42
0.0000000038010963
 43
0.0000000001
 12
1.0
 22
0.0
 32
0.0
 13
1.0
 23
0.0
 33
0.0
 40
0.0
 40
0.0
 40
0.0
 40
0.0
 40
0.0721760954866653
 40
0.0721760954866653
 40
0.0721760954866653
 40
0.1502307625843914
 40
0.1502307625843914
 40
0.2179408352474749
 40
0.2179408352474749
 40
0.2179408352474749
 40
0.319912285247226
 40
0.319912285247226
 40
0.4218837352469775
 40
0.4218837352469775
 40
0.5202133477467381
 40
0.5202133477467381
 40
0.6185429602464948
 40
0.6185429602464948
 40
0.6908441459080786
 40
0.6908441459080786
 40
0.6908441459080786
 40
0.74912789085262
 40
0.74912789085262
 40
0.74912789085262
 40
0.8834830151345897
 40
0.8834830151345897
 40
0.8834830151345897
 40
1.0
 40
1.0
 40
1.0
 40
1.0
 10
86.72812584556976
 20
102.2895929256431
 30
0.0
 10
86.72812584556976
 20
102.2120432142897
 30
0.0
 10
86.74146773139401
 20
102.1520047280805
 30
0.0
 10
86.7673176351785
 20
102.1086435991517
 30
0.0
 10
86.803274745545
 20
102.0483284462789
 30
0.0
 10
86.8540398930361
 20
102.0185858698381
 30
0.0
 10
86.98328941195848
 20
102.0185858698381
 30
0.0
 10
87.03832469098349
 20
102.0452696414866
 30
0.0
 10
87.08752289496041
 20
102.0994710526476
 30
0.0
 10
87.15809607777389
 20
102.1772211693065
 30
0.0
 10
87.21260307456272
 20
102.288759057779
 30
0.0
 10
87.28431571086803
 20
102.5839482816405
 30
0.0
 10
87.30182693601236
 20
102.7048591219228
 30
0.0
 10
87.30182693601236
 20
102.8883100520061
 30
0.0
 10
87.28514957873206
 20
102.9541856132633
 30
0.0
 10
87.21510467815477
 20
103.0342369282088
 30
0.0
 10
87.16924194563391
 20
103.0542497569452
 30
0.0
 10
87.0708455376801
 20
103.0542497569452
 30
0.0
 10
87.0324876159354
 20
103.043409474713
 30
0.0
 10
86.99663129778273
 20
103.0225627781126
 30
0.0
 10
86.96041264820168
 20
103.001505423705
 30
0.0
 10
86.92658639720544
 20
102.9650258954955
 30
0.0
 10
86.89406555050883
 20
102.9133260879266
 30
0.0
 10
86.8481302334041
 20
102.8403007120165
 30
0.0
 10
86.80650942478721
 20
102.7323767614352
 30
0.0
 10
86.77232084236259
 20
102.5881176209606
 30
0.0
 10
86.74288902632529
 20
102.4639297142666
 30
0.0
 10
86.72812584556976
 20
102.3646410334045
 30
0.0
 10
86.72812584556976
 20
102.2895929256431
 30
0.0
  0
SPLINE
  5
6D
330
40
100
AcDbEntity
  8
0012877
  6
Continuous
 62
     7
100
AcDbSpline
210
0.0
220
0.0
230
1.0
 70
    11
 71
     3
 72
    37
 73
    33
 74
     0
 42
0.0000000028749899
 43
0.0000000001
 12
1.0
 22
0.0
 32
0.0
 13
1.0
 23
0.0
 33
0.0
 40
0.0
 40
0.0
 40
0.0
 40
0.0
 40
0.0956606184024858
 40
0.0956606184024858
 40
0.0956606184024858
 40
0.178656276707201
 40
0.178656276707201
 40
0.178656276707201
 40
0.2360303399524745
 40
0.2360303399524745
 40
0.2360303399524745
 40
0.2771386444945383
 40
0.2771386444945383
 40
0.3182469490366053
 40
0.3182469490366053
 40
0.3983733053474192
 40
0.3983733053474192
 40
0.3983733053474192
 40
0.5061192906921728
 40
0.5061192906921728
 40
0.6171907694117652
 40
0.6171907694117652
 40
0.6171907694117652
 40
0.7423143381907783
 40
0.7423143381907783
 40
0.7423143381907783
 40
0.819888036120354
 40
0.819888036120354
 40
0.8995773803571
 40
0.8995773803571
 40
0.8995773803571
 40
1.0
 40
1.0
 40
1.0
 40
1.0
 10
86.58136510150307
 20
102.3296185831158
 30
0.0
 10
86.58136510150307
 20
102.4355198018458
 30
0.0
 10
86.59720859091935
 20
102.5439226241678
 30
0.0
 10
86.62889556975193
 20
102.6531593143538
 30
0.0
 10
86.66080566034088
 20
102.7631651529631
 30
0.0
 10
86.6964388667372
 20
102.8507859981254
 30
0.0
 10
86.73479678848189
 20
102.9166615593826
 30
0.0
 10
86.7733658463281
 20
102.9828997239446
 30
0.0
 10
86.81401423556335
 20
103.0334030603448
 30
0.0
 10
86.85570762876412
 20
103.0709271142255
 30
0.0
 10
86.89698639153528
 20
103.1080780007195
 30
0.0
 10
86.93826054730165
 20
103.1351349397547
 30
0.0
 10
87.01831186224712
 20
103.1701573900433
 30
0.0
 10
87.06334072690397
 20
103.1784960686835
 30
0.0
 10
87.20843373524265
 20
103.1784960686835
 30
0.0
 10
87.28848505018811
 20
103.1426397505308
 30
0.0
 10
87.3526928757173
 20
103.0717609820895
 30
0.0
 10
87.4173156066114
 20
103.0004242012324
 30
0.0
 10
87.44858768007907
 20
102.8974825985103
 30
0.0
 10
87.44858768007907
 20
102.6231400712492
 30
0.0
 10
87.42690711561468
 20
102.4863857415507
 30
0.0
 10
87.38187825095784
 20
102.3504652797162
 30
0.0
 10
87.3283903433526
 20
102.1890110400929
 30
0.0
 10
87.25679807135553
 20
102.067784073815
 30
0.0
 10
87.16257100272179
 20
101.9877327588695
 30
0.0
 10
87.09088385466777
 20
101.9268304030006
 30
0.0
 10
87.00913931574296
 20
101.8960072938278
 30
0.0
 10
86.82318678206752
 20
101.8960072938278
 30
0.0
 10
86.74313546712204
 20
101.9326974798445
 30
0.0
 10
86.67892764159286
 20
102.0069117197419
 30
0.0
 10
86.6143628483694
 20
102.0815385586625
 30
0.0
 10
86.58136510150307
 20
102.1886949140972
 30
0.0
 10
86.58136510150307
 20
102.3296185831158
 30
0.0
  0
LINE
  5
6E
330
40
100
AcDbEntity
  8
0012877
  6
Continuous
 62
     7
100
AcDbLine
 10
86.1018910797
 20
102.3746474478
 30
0.0
 11
86.2127955056
 21
102.8991503342
 31
0.0
  0
LINE
  5
6F
330
40
100
AcDbEntity
  8
0012877
  6
Continuous
 62
     7
100
AcDbLine
 10
86.2127955056
 20
102.8991503342
 30
0.0
 11
85.7433278982
 21
102.3746474478
 31
0.0
  0
LINE
  5
70
330
40
100
AcDbEntity
  8
0012877
  6
Continuous
 62
     7
100
AcDbLine
 10
86.2278051272
 20
102.2378931181
 30
0.0
 11
86.1594279623
 21
101.9185217262
 31
0.0
  0
LINE
  5
71
330
40
100
AcDbEntity
  8
0012877
  6
Continuous
 62
     7
100
AcDbLine
 10
86.1594279623
 20
101.9185217262
 30
0.0
 11
86.0051624075
 21
101.9185217262
 31
0.0
  0
LINE
  5
72
330
40
100
AcDbEntity
  8
0012877
  6
Continuous
 62
     7
100
AcDbLine
 10
86.0051624075
 20
101.9185217262
 30
0.0
 11
86.0727057045
 21
102.2378931181
 31
0.0
  0
LINE
  5
73
330
40
100
AcDbEntity
  8
0012877
  6
Continuous
 62
     7
100
AcDbLine
 10
86.0727057045
 20
102.2378931181
 30
0.0
 11
85.5632124395
 21
102.2378931181
 31
0.0
  0
LINE
  5
74
330
40
100
AcDbEntity
  8
0012877
  6
Continuous
 62
     7
100
AcDbLine
 10
85.5632124395
 20
102.2378931181
 30
0.0
 11
85.5948994184
 21
102.3913248051
 31
0.0
  0
LINE
  5
75
330
40
100
AcDbEntity
  8
0012877
  6
Continuous
 62
     7
100
AcDbLine
 10
85.5948994184
 20
102.3913248051
 30
0.0
 11
86.2978500277
 21
103.1718251258
 31
0.0
  0
LINE
  5
76
330
40
100
AcDbEntity
  8
0012877
  6
Continuous
 62
     7
100
AcDbLine
 10
86.2978500277
 20
103.1718251258
 30
0.0
 11
86.4254318109
 21
103.1718251258
 31
0.0
  0
LINE
  5
77
330
40
100
AcDbEntity
  8
0012877
  6
Continuous
 62
     7
100
AcDbLine
 10
86.4254318109
 20
103.1718251258
 30
0.0
 11
86.2561566345
 21
102.3746474478
 31
0.0
  0
LINE
  5
78
330
40
100
AcDbEntity
  8
0012877
  6
Continuous
 62
     7
100
AcDbLine
 10
86.2561566345
 20
102.3746474478
 30
0.0
 11
86.4346043574
 21
102.3746474478
 31
0.0
  0
LINE
  5
79
330
40
100
AcDbEntity
  8
0012877
  6
Continuous
 62
     7
100
AcDbLine
 10
86.4346043574
 20
102.3746474478
 30
0.0
 11
86.4054189822
 21
102.2378931181
 31
0.0
  0
LINE
  5
7A
330
40
100
AcDbEntity
  8
0012877
  6
Continuous
 62
     7
100
AcDbLine
 10
86.4054189822
 20
102.2378931181
 30
0.0
 11
86.2278051272
 21
102.2378931181
 31
0.0
  0
LINE
  5
7B
330
40
100
AcDbEntity
  8
0012877
  6
Continuous
 62
     7
100
AcDbLine
 10
85.7433278982
 20
102.3746474478
 30
0.0
 11
86.1018910797
 21
102.3746474478
 31
0.0
  0
LINE
  5
7C
330
40
100
AcDbEntity
  8
0012877
  6
Continuous
 62
     7
100
AcDbLine
 10
85.4898320675
 20
102.8165974157
 30
0.0
 11
85.3255600983
 21
102.8040893977
 31
0.0
  0
SPLINE
  5
7D
330
40
100
AcDbEntity
  8
0012877
  6
Continuous
 62
     7
100
AcDbSpline
210
0.0
220
0.0
230
1.0
 70
     8
 71
     3
 72
    51
 73
    47
 74
     0
 42
0.0000000030992995
 43
0.0000000001
 12
1.0
 22
0.0
 32
0.0
 13
1.0
 23
0.0
 33
0.0
 40
0.0
 40
0.0
 40
0.0
 40
0.0
 40
0.0215676385382432
 40
0.0215676385382432
 40
0.0593110059801697
 40
0.0593110059801697
 40
0.0593110059801697
 40
0.0954792894329483
 40
0.0954792894329483
 40
0.0954792894329483
 40
0.1368449708122615
 40
0.1368449708122615
 40
0.210760696555631
 40
0.210760696555631
 40
0.210760696555631
 40
0.2564187340021234
 40
0.2564187340021234
 40
0.2832337718675259
 40
0.2832337718675259
 40
0.2832337718675259
 40
0.3187202206675852
 40
0.3187202206675852
 40
0.3187202206675852
 40
0.3919232479418014
 40
0.3919232479418014
 40
0.3919232479418014
 40
0.4575200365630873
 40
0.4575200365630873
 40
0.4575200365630873
 40
0.5058400090487184
 40
0.5058400090487184
 40
0.5058400090487184
 40
0.5557804750875059
 40
0.5557804750875059
 40
0.6170710470442002
 40
0.6170710470442002
 40
0.6170710470442002
 40
0.6863265147445908
 40
0.6863265147445908
 40
0.6863265147445908
 40
0.7644282827156565
 40
0.7644282827156565
 40
0.881926517716375
 40
0.881926517716375
 40
0.881926517716375
 40
1.0
 40
1.0
 40
1.0
 40
1.0
 10
85.32556009829588
 20
102.8040893977406
 30
0.0
 10
85.32556009829588
 20
102.8391118480292
 30
0.0
 10
85.32305849470384
 20
102.8674633554057
 30
0.0
 10
85.30471340169548
 20
102.9224986344308
 30
0.0
 10
85.28803604441518
 20
102.9516840096713
 30
0.0
 10
85.26385387635874
 20
102.9767000455918
 30
0.0
 10
85.24050509720716
 20
103.0008539550589
 30
0.0
 10
85.20715086160568
 20
103.0200611745206
 30
0.0
 10
85.16545746840492
 20
103.0342369282088
 30
0.0
 10
85.12350993835065
 20
103.0484990884273
 30
0.0
 10
85.07706747481929
 20
103.0567513605372
 30
0.0
 10
84.93530993793668
 20
103.0567513605372
 30
0.0
 10
84.86443116949536
 20
103.0359046639368
 30
0.0
 10
84.81439909765444
 20
102.9950451386001
 30
0.0
 10
84.77586414747135
 20
102.9635749292839
 30
0.0
 10
84.75686221503737
 20
102.9216647665667
 30
0.0
 10
84.75686221503737
 20
102.8382779801652
 30
0.0
 10
84.76436702581353
 20
102.8107603406527
 30
0.0
 10
84.78021051522981
 20
102.7865781725963
 30
0.0
 10
84.79643625189493
 20
102.7618125745285
 30
0.0
 10
84.82523937988665
 20
102.7382138364834
 30
0.0
 10
84.8660989052234
 20
102.7148655362909
 30
0.0
 10
84.89591288854604
 20
102.6978289743923
 30
0.0
 10
84.96616304890526
 20
102.665667332314
 30
0.0
 10
85.07706747481929
 20
102.6164691283371
 30
0.0
 10
85.16645633733093
 20
102.5768154224109
 30
0.0
 10
85.2288314260701
 20
102.5447564920318
 30
0.0
 10
85.26302000849472
 20
102.5222420597034
 30
0.0
 10
85.30860005634963
 20
102.4922259306282
 30
0.0
 10
85.34307132344021
 20
102.4546987627181
 30
0.0
 10
85.36725349149665
 20
102.4113376337893
 30
0.0
 10
85.39108094227836
 20
102.368612549629
 30
0.0
 10
85.40394367751334
 20
102.3196121687476
 30
0.0
 10
85.40394367751334
 20
102.1970335927374
 30
0.0
 10
85.38309698091294
 20
102.1336596350722
 30
0.0
 10
85.3422374555762
 20
102.0769566203192
 30
0.0
 10
85.30030191426971
 20
102.0187603589142
 30
0.0
 10
85.24300717975835
 20
101.9743908730453
 30
0.0
 10
85.170460675589
 20
101.9435377620767
 30
0.0
 10
85.09690770839472
 20
101.912256615109
 30
0.0
 10
85.01369351715412
 20
101.8960072938278
 30
0.0
 10
84.77770891163777
 20
101.8960072938278
 30
0.0
 10
84.66180127853961
 20
101.9268604047964
 30
0.0
 10
84.57257741708999
 20
101.9894004945975
 30
0.0
 10
84.4831863327537
 20
102.0520577967024
 30
0.0
 10
84.43749082311949
 20
102.1628450103127
 30
0.0
 10
84.43665695525547
 20
102.3237815080677
 30
0.0
  0
LINE
  5
7E
330
40
100
AcDbEntity
  8
0012877
  6
Continuous
 62
     7
100
AcDbLine
 10
84.4366569553
 20
102.3237815081
 30
0.0
 11
84.6000950566
 21
102.3387911296
 31
0.0
  0
SPLINE
  5
7F
330
40
100
AcDbEntity
  8
0012877
  6
Continuous
 62
     7
100
AcDbSpline
210
0.0
220
0.0
230
1.0
 70
     8
 71
     3
 72
    51
 73
    47
 74
     0
 42
0.0000000031092123
 43
0.0000000001
 12
1.0
 22
0.0
 32
0.0
 13
1.0
 23
0.0
 33
0.0
 40
0.0
 40
0.0
 40
0.0
 40
0.0
 40
0.0139202833043142
 40
0.0139202833043142
 40
0.0139202833043142
 40
0.0590107205957899
 40
0.0590107205957899
 40
0.1041011578872674
 40
0.1041011578872674
 40
0.1041011578872674
 40
0.1517747527218389
 40
0.1517747527218389
 40
0.2190786513118212
 40
0.2190786513118212
 40
0.2863825499018007
 40
0.2863825499018007
 40
0.3329014209860521
 40
0.3329014209860521
 40
0.3329014209860521
 40
0.4178513912987811
 40
0.4178513912987811
 40
0.4178513912987811
 40
0.4885725091405268
 40
0.4885725091405268
 40
0.4885725091405268
 40
0.5436044003554695
 40
0.5436044003554695
 40
0.5436044003554695
 40
0.5941884394790057
 40
0.5941884394790057
 40
0.6514674249571281
 40
0.6514674249571281
 40
0.6514674249571281
 40
0.7203879745771028
 40
0.7203879745771028
 40
0.7893085241970805
 40
0.7893085241970805
 40
0.8717429070758794
 40
0.8717429070758794
 40
0.8717429070758794
 40
0.9374423525786653
 40
0.9374423525786653
 40
0.9374423525786653
 40
0.9945602045720584
 40
0.9945602045720584
 40
1.0
 40
1.0
 40
1.0
 40
1.0
 10
84.60009505660248
 20
102.33879112962
 30
0.0
 10
84.59953914469315
 20
102.3240594640224
 30
0.0
 10
84.5989832327838
 20
102.3093277984248
 30
0.0
 10
84.59842732087445
 20
102.2945961328272
 30
0.0
 10
84.5966048467799
 20
102.2463005693216
 30
0.0
 10
84.60926760310666
 20
102.2012029320574
 30
0.0
 10
84.65429646776349
 20
102.121151617112
 30
0.0
 10
84.69098665378016
 20
102.0902985061434
 30
0.0
 10
84.74268646134911
 20
102.068617941679
 30
0.0
 10
84.7946836571917
 20
102.0468126660031
 30
0.0
 10
84.8552586229912
 20
102.0352632271184
 30
0.0
 10
85.02620153511435
 20
102.0352632271184
 30
0.0
 10
85.10375124646778
 20
102.0569437915828
 30
0.0
 10
85.20881859733373
 20
102.1453337851684
 30
0.0
 10
85.23550236898222
 20
102.1961997248733
 30
0.0
 10
85.23550236898222
 20
102.2920945292351
 30
0.0
 10
85.22132661529396
 20
102.3279508473878
 30
0.0
 10
85.19380897578144
 20
102.3604716940844
 30
0.0
 10
85.1659434120912
 20
102.3934037239001
 30
0.0
 10
85.08707388918748
 20
102.4363536697098
 30
0.0
 10
84.95949210599314
 20
102.4913889487348
 30
0.0
 10
84.86106596531157
 20
102.5338472839308
 30
0.0
 10
84.79438626891807
 20
102.5664370564962
 30
0.0
 10
84.7576960829014
 20
102.5897853566886
 30
0.0
 10
84.7013118999787
 20
102.6256662003667
 30
0.0
 10
84.6601335428116
 20
102.667335068042
 30
0.0
 10
84.6334497711631
 20
102.7106961969708
 30
0.0
 10
84.60639380098303
 20
102.7546621485135
 30
0.0
 10
84.59259024582636
 20
102.8040893977406
 30
0.0
 10
84.59259024582636
 20
102.9250002380228
 30
0.0
 10
84.61093533883468
 20
102.9833709885039
 30
0.0
 10
84.64595778912333
 20
103.0350707960728
 30
0.0
 10
84.68136743483242
 20
103.0873421778339
 30
0.0
 10
84.73268004698092
 20
103.1267962611145
 30
0.0
 10
84.86943437667946
 20
103.1818315401395
 30
0.0
 10
84.94615022016887
 20
103.1960072938278
 30
0.0
 10
85.13293662170831
 20
103.1960072938278
 30
0.0
 10
85.21965887956593
 20
103.1784960686835
 30
0.0
 10
85.28970378014323
 20
103.1443074862589
 30
0.0
 10
85.3600773794642
 20
103.1099584675427
 30
0.0
 10
85.41061462042546
 20
103.0634223034494
 30
0.0
 10
85.44230159925803
 20
103.0067192886963
 30
0.0
 10
85.4743436727776
 20
102.9493808413455
 30
0.0
 10
85.48983206750691
 20
102.8949809949183
 30
0.0
 10
85.48983206750691
 20
102.8374441123012
 30
0.0
 10
85.48983206750691
 20
102.829105433661
 30
0.0
 10
85.48983206750691
 20
102.8165974157008
 30
0.0
  0
LINE
  5
80
330
40
100
AcDbEntity
  8
0012877
  6
Continuous
 62
     7
100
AcDbLine
 10
83.1274844088
 20
101.9185217262
 30
0.0
 11
83.3884850502
 21
103.1734928615
 31
0.0
  0
LINE
  5
81
330
40
100
AcDbEntity
  8
0012877
  6
Continuous
 62
     7
100
AcDbLine
 10
83.5260732478
 20
103.0325691925
 30
0.0
 11
83.3234433568
 21
102.060279263
 31
0.0
  0
SPLINE
  5
82
330
40
100
AcDbEntity
  8
0012877
  6
Continuous
 62
     7
100
AcDbSpline
210
0.0
220
0.0
230
1.0
 70
     8
 71
     3
 72
    33
 73
    29
 74
     0
 42
0.0000000049237497
 43
0.0000000001
 12
1.0
 22
0.0
 32
0.0
 13
1.0
 23
0.0
 33
0.0
 40
0.0
 40
0.0
 40
0.0
 40
0.0
 40
0.098687067175298
 40
0.098687067175298
 40
0.098687067175298
 40
0.2184768563336364
 40
0.2184768563336364
 40
0.2184768563336364
 40
0.2784202651886635
 40
0.2784202651886635
 40
0.2784202651886635
 40
0.3535686568610644
 40
0.3535686568610644
 40
0.3535686568610644
 40
0.4670246171377619
 40
0.4670246171377619
 40
0.5804805774144616
 40
0.5804805774144616
 40
0.7063135515395287
 40
0.7063135515395287
 40
0.7063135515395287
 40
0.7943517716916371
 40
0.7943517716916371
 40
0.7943517716916371
 40
0.889750588615474
 40
0.889750588615474
 40
0.889750588615474
 40
1.0
 40
1.0
 40
1.0
 40
1.0
 10
83.32344335679491
 20
102.0602792630389
 30
0.0
 10
83.38987482996147
 20
102.0602792630389
 30
0.0
 10
83.45630630312804
 20
102.0602792630389
 30
0.0
 10
83.5227377762946
 20
102.0602792630389
 30
0.0
 10
83.61279550560825
 20
102.0602792630389
 30
0.0
 10
83.69284682055374
 20
102.067784073815
 30
0.0
 10
83.76289172113104
 20
102.0844614310953
 30
0.0
 10
83.80618127341914
 20
102.0947684673544
 30
0.0
 10
83.84377690394052
 20
102.1094774670158
 30
0.0
 10
83.87463001490909
 20
102.1294902957521
 30
0.0
 10
83.91519114845491
 20
102.1558002202143
 30
0.0
 10
83.95217972626253
 20
102.1895287819612
 30
0.0
 10
83.98553444082313
 20
102.232056043026
 30
0.0
 10
84.02917901733818
 20
102.2877028780827
 30
0.0
 10
84.06391802004059
 20
102.3521330154442
 30
0.0
 10
84.11561782760954
 20
102.4955582880549
 30
0.0
 10
84.12895971343379
 20
102.5772773387284
 30
0.0
 10
84.12895971343379
 20
102.77073468318
 30
0.0
 10
84.11144848828947
 20
102.8491182623974
 30
0.0
 10
84.0755921701368
 20
102.9033196735584
 30
0.0
 10
84.03935214097329
 20
102.9581011129916
 30
0.0
 10
83.9947069873273
 20
102.9942112707361
 30
0.0
 10
83.93967170830228
 20
103.0125563637444
 30
0.0
 10
83.89889556975194
 20
103.0261484099279
 30
0.0
 10
83.83543822530036
 20
103.0317353246168
 30
0.0
 10
83.74871596744276
 20
103.0325691924808
 30
0.0
 10
83.67450858843472
 20
103.0332827249713
 30
0.0
 10
83.60028748764803
 20
103.0325691924808
 30
0.0
 10
83.52607324775066
 20
103.0325691924808
 30
0.0
  0
SPLINE
  5
83
330
40
100
AcDbEntity
  8
0012877
  6
Continuous
 62
     7
100
AcDbSpline
210
0.0
220
0.0
230
1.0
 70
     8
 71
     3
 72
    37
 73
    33
 74
     0
 42
0.0000000034996317
 43
0.0000000001
 12
1.0
 22
0.0
 32
0.0
 13
1.0
 23
0.0
 33
0.0
 40
0.0
 40
0.0
 40
0.0
 40
0.0
 40
0.1332789625874572
 40
0.1332789625874572
 40
0.1332789625874572
 40
0.2072857096995324
 40
0.2072857096995324
 40
0.2072857096995324
 40
0.2783067277519798
 40
0.2783067277519798
 40
0.2783067277519798
 40
0.3501293705634418
 40
0.3501293705634418
 40
0.3501293705634418
 40
0.4322565886572693
 40
0.4322565886572693
 40
0.5306466222152209
 40
0.5306466222152209
 40
0.5306466222152209
 40
0.6188274428544841
 40
0.6188274428544841
 40
0.6188274428544841
 40
0.694544642586548
 40
0.694544642586548
 40
0.694544642586548
 40
0.7678266934497298
 40
0.7678266934497298
 40
0.7678266934497298
 40
0.8409412432657464
 40
0.8409412432657464
 40
0.8409412432657464
 40
1.0
 40
1.0
 40
1.0
 40
1.0
 10
83.38848505018811
 20
103.1734928614994
 30
0.0
 10
83.51495500956378
 20
103.1734928614994
 30
0.0
 10
83.64142496893946
 20
103.1734928614994
 30
0.0
 10
83.76789492831512
 20
103.1734928614994
 30
0.0
 10
83.85878652549279
 20
103.1734928614994
 30
0.0
 10
83.92883142607009
 20
103.1668219185873
 30
0.0
 10
83.97719576218299
 20
103.154313900627
 30
0.0
 10
84.04573324155612
 20
103.1365886904443
 30
0.0
 10
84.10477754537735
 20
103.1051156966501
 30
0.0
 10
84.15314188149023
 20
103.0592529641293
 30
0.0
 10
84.20108987099393
 20
103.0137850430482
 30
0.0
 10
84.23819640361981
 20
102.9575210847194
 30
0.0
 10
84.26321243954027
 20
102.8891439198701
 30
0.0
 10
84.28786097860565
 20
102.8217712464247
 30
0.0
 10
84.29990262555695
 20
102.7448847793955
 30
0.0
 10
84.29990262555695
 20
102.5597661135841
 30
0.0
 10
84.28489300400466
 20
102.4672067806784
 30
0.0
 10
84.2540398930361
 20
102.3846538621408
 30
0.0
 10
84.222913330144
 20
102.301369274943
 30
0.0
 10
84.18316112459479
 20
102.2278867037059
 30
0.0
 10
84.13396292061788
 20
102.1653466139048
 30
0.0
 10
84.08435950411096
 20
102.1022914234299
 30
0.0
 10
84.032231041208
 20
102.0527744522627
 30
0.0
 10
83.97886349791102
 20
102.01691813411
 30
0.0
 10
83.92492143438342
 20
101.9806758101774
 30
0.0
 10
83.86045426122084
 20
101.9552119121729
 30
0.0
 10
83.78707388918748
 20
101.9377006870286
 30
0.0
 10
83.73041366301145
 20
101.9241794966911
 30
0.0
 10
83.66199370958518
 20
101.9185217261562
 30
0.0
 10
83.58027465891166
 20
101.9185217261562
 30
0.0
 10
83.42934457552487
 20
101.9185217261562
 30
0.0
 10
83.27841449213808
 20
101.9185217261562
 30
0.0
 10
83.1274844087513
 20
101.9185217261562
 30
0.0
  0
SPLINE
  5
84
330
40
100
AcDbEntity
  8
0012877
  6
Continuous
 62
     7
100
AcDbSpline
210
0.0
220
0.0
230
1.0
 70
     8
 71
     3
 72
    27
 73
    23
 74
     0
 42
0.000000005358186
 43
0.0000000001
 12
1.0
 22
0.0
 32
0.0
 13
1.0
 23
0.0
 33
0.0
 40
0.0
 40
0.0
 40
0.0
 40
0.0
 40
0.3379250067985389
 40
0.3379250067985389
 40
0.3379250067985389
 40
0.3682196813315327
 40
0.3682196813315327
 40
0.4201534091023817
 40
0.4201534091023817
 40
0.4720871368732295
 40
0.4720871368732295
 40
0.4720871368732295
 40
0.5505950391780757
 40
0.5505950391780757
 40
0.5505950391780757
 40
0.6410999463312407
 40
0.6410999463312407
 40
0.6410999463312407
 40
0.7642962298882139
 40
0.7642962298882139
 40
0.7642962298882139
 40
1.0
 40
1.0
 40
1.0
 40
1.0
 10
80.72344335679492
 20
101.9185217261562
 30
0.0
 10
80.76597061785971
 20
102.1233752647493
 30
0.0
 10
80.80849787892448
 20
102.3282288033425
 30
0.0
 10
80.85102513998928
 20
102.5330823419356
 30
0.0
 10
80.85970198386926
 20
102.574878642194
 30
0.0
 10
80.86436702581352
 20
102.6047949782409
 30
0.0
 10
80.86436702581352
 20
102.6523254464898
 30
0.0
 10
80.85519447930935
 20
102.6756737466822
 30
0.0
 10
80.81850429329266
 20
102.7123639326989
 30
0.0
 10
80.79432212523622
 20
102.7215364792031
 30
0.0
 10
80.76430288213167
 20
102.7223703470671
 30
0.0
 10
80.7209983302052
 20
102.7235732512872
 30
0.0
 10
80.674245152818
 20
102.7073607255148
 30
0.0
 10
80.62671468456912
 20
102.6798430860023
 30
0.0
 10
80.57819810702048
 20
102.6517545411057
 30
0.0
 10
80.5391585588475
 20
102.612299789017
 30
0.0
 10
80.50913931574296
 20
102.5622677171761
 30
0.0
 10
80.47853146002852
 20
102.5112546243187
 30
0.0
 10
80.45410403671795
 20
102.4405230090299
 30
0.0
 10
80.43409120798158
 20
102.3471298082601
 30
0.0
 10
80.40351469708497
 20
102.204439424076
 30
0.0
 10
80.3746086336818
 20
102.0613910868575
 30
0.0
 10
80.34486734653194
 20
101.9185217261562
 30
0.0
  0
LINE
  5
85
330
40
100
AcDbEntity
  8
0012877
  6
Continuous
 62
     7
100
AcDbLine
 10
80.3448673465
 20
101.9185217262
 30
0.0
 11
80.1906017917
 21
101.9185217262
 31
0.0
  0
LINE
  5
86
330
40
100
AcDbEntity
  8
0012877
  6
Continuous
 62
     7
100
AcDbLine
 10
80.1906017917
 20
101.9185217262
 30
0.0
 11
80.3798897968
 21
102.8291054337
 31
0.0
  0
LINE
  5
87
330
40
100
AcDbEntity
  8
0012877
  6
Continuous
 62
     7
100
AcDbLine
 10
80.3798897968
 20
102.8291054337
 30
0.0
 11
80.5341553517
 21
102.8291054337
 31
0.0
  0
LINE
  5
88
330
40
100
AcDbEntity
  8
0012877
  6
Continuous
 62
     7
100
AcDbLine
 10
80.5341553517
 20
102.8291054337
 30
0.0
 11
80.5024683728
 21
102.6765076145
 31
0.0
  0
SPLINE
  5
89
330
40
100
AcDbEntity
  8
0012877
  6
Continuous
 62
     7
100
AcDbSpline
210
0.0
220
0.0
230
1.0
 70
     8
 71
     3
 72
    16
 73
    12
 74
     0
 42
0.0000000149234665
 43
0.0000000001
 12
1.0
 22
0.0
 32
0.0
 13
1.0
 23
0.0
 33
0.0
 40
0.0
 40
0.0
 40
0.0
 40
0.0
 40
0.312257333129591
 40
0.312257333129591
 40
0.312257333129591
 40
0.5348729600410366
 40
0.5348729600410366
 40
0.7751564938502068
 40
0.7751564938502068
 40
0.7751564938502068
 40
1.0
 40
1.0
 40
1.0
 40
1.0
 10
80.50246837283083
 20
102.6765076145462
 30
0.0
 10
80.56000525544789
 20
102.7415493079394
 30
0.0
 10
80.61170506301686
 20
102.7865781725963
 30
0.0
 10
80.65756779553769
 20
102.8115942085167
 30
0.0
 10
80.70278786556463
 20
102.8362597012587
 30
0.0
 10
80.75262873203546
 20
102.8491182623974
 30
0.0
 10
80.86186542222147
 20
102.8491182623974
 30
0.0
 10
80.90939589047035
 20
102.8341086408451
 30
0.0
 10
80.94775381221507
 20
102.8040893977406
 30
0.0
 10
80.98559459902417
 20
102.7744748689334
 30
0.0
 10
81.01029390201622
 20
102.7323767614352
 30
0.0
 10
81.02280191997644
 20
102.6790092181383
 30
0.0
  0
SPLINE
  5
8A
330
40
100
AcDbEntity
  8
0012877
  6
Continuous
 62
     7
100
AcDbSpline
210
0.0
220
0.0
230
1.0
 70
     8
 71
     3
 72
    20
 73
    16
 74
     0
 42
0.0000000068238877
 43
0.0000000001
 12
1.0
 22
0.0
 32
0.0
 13
1.0
 23
0.0
 33
0.0
 40
0.0
 40
0.0
 40
0.0
 40
0.0
 40
0.1130308046446511
 40
0.1130308046446511
 40
0.2260616092893001
 40
0.2260616092893001
 40
0.3773234213872821
 40
0.3773234213872821
 40
0.3773234213872821
 40
0.5252114115650883
 40
0.5252114115650883
 40
0.5888594073378147
 40
0.5888594073378147
 40
0.5888594073378147
 40
1.0
 40
1.0
 40
1.0
 40
1.0
 10
81.02280191997644
 20
102.6790092181383
 30
0.0
 10
81.0686646524973
 20
102.7357122328913
 30
0.0
 10
81.11786285647419
 20
102.7782394939561
 30
0.0
 10
81.21959473588407
 20
102.8349425087091
 30
0.0
 10
81.27379614704506
 20
102.8491182623974
 30
0.0
 10
81.40638113742354
 20
102.8491182623974
 30
0.0
 10
81.4639180200406
 20
102.8307731693891
 30
0.0
 10
81.50144207392128
 20
102.7940829833724
 30
0.0
 10
81.53897560118088
 20
102.7573835344963
 30
0.0
 10
81.55814508867434
 20
102.7073607255148
 30
0.0
 10
81.55814508867434
 20
102.613133656881
 30
0.0
 10
81.55230801362622
 20
102.5672709243602
 30
0.0
 10
81.53896612780197
 20
102.503063098831
 30
0.0
 10
81.49845151951489
 20
102.3080865464493
 30
0.0
 10
81.45669116521913
 20
102.1133688503811
 30
0.0
 10
81.41555368392771
 20
101.9185217261562
 30
0.0
  0
LINE
  5
8B
330
40
100
AcDbEntity
  8
0012877
  6
Continuous
 62
     7
100
AcDbLine
 10
81.4155536839
 20
101.9185217262
 30
0.0
 11
81.2604542612
 21
101.9185217262
 31
0.0
  0
SPLINE
  5
8C
330
40
100
AcDbEntity
  8
0012877
  6
Continuous
 62
     7
100
AcDbSpline
210
0.0
220
0.0
230
1.0
 70
     8
 71
     3
 72
    27
 73
    23
 74
     0
 42
0.000000005327561
 43
0.0000000001
 12
1.0
 22
0.0
 32
0.0
 13
1.0
 23
0.0
 33
0.0
 40
0.0
 40
0.0
 40
0.0
 40
0.0
 40
0.3291852717410316
 40
0.3291852717410316
 40
0.3291852717410316
 40
0.3698336758134114
 40
0.3698336758134114
 40
0.4283673776776379
 40
0.4283673776776379
 40
0.4283673776776379
 40
0.4743836868896335
 40
0.4743836868896335
 40
0.4743836868896335
 40
0.5546028510964031
 40
0.5546028510964031
 40
0.5546028510964031
 40
0.6569205378769003
 40
0.6569205378769003
 40
0.7592382246573974
 40
0.7592382246573974
 40
0.7592382246573974
 40
1.0
 40
1.0
 40
1.0
 40
1.0
 10
81.26045426122084
 20
101.9185217261562
 30
0.0
 10
81.3021476544216
 20
102.1192059254293
 30
0.0
 10
81.34384104762236
 20
102.3198901247023
 30
0.0
 10
81.38553444082315
 20
102.5205743239753
 30
0.0
 10
81.39578128854379
 20
102.5698958176707
 30
0.0
 10
81.40221179810347
 20
102.6047949782409
 30
0.0
 10
81.40221179810347
 20
102.6556609179458
 30
0.0
 10
81.39303925159928
 20
102.6790092181383
 30
0.0
 10
81.37386029072692
 20
102.6965204432826
 30
0.0
 10
81.35509654447138
 20
102.7136525594289
 30
0.0
 10
81.32799755820609
 20
102.7215364792031
 30
0.0
 10
81.29380897578143
 20
102.7223703470671
 30
0.0
 10
81.2471604640903
 20
102.7235081156449
 30
0.0
 10
81.20041577501173
 20
102.7073607255148
 30
0.0
 10
81.15205143889882
 20
102.6798430860023
 30
0.0
 10
81.10332868753966
 20
102.6521215205738
 30
0.0
 10
81.06616304890525
 20
102.6148013926091
 30
0.0
 10
81.01279550560827
 20
102.5230759275674
 30
0.0
 10
80.98944720541583
 20
102.4530310269901
 30
0.0
 10
80.96943437667946
 20
102.3588039583563
 30
0.0
 10
80.93828964627879
 20
102.2121641860532
 30
0.0
 10
80.90828406665166
 20
102.0652824702229
 30
0.0
 10
80.87770891163777
 20
101.9185217261562
 30
0.0
  0
LINE
  5
8D
330
40
100
AcDbEntity
  8
0012877
  6
Continuous
 62
     7
100
AcDbLine
 10
80.8777089116
 20
101.9185217262
 30
0.0
 11
80.7234433568
 21
101.9185217262
 31
0.0
  0
SPLINE
  5
8E
330
40
100
AcDbEntity
  8
0012877
  6
Continuous
 62
     7
100
AcDbSpline
210
0.0
220
0.0
230
1.0
 70
     8
 71
     3
 72
    18
 73
    14
 74
     0
 42
0.0000000117603927
 43
0.0000000001
 12
1.0
 22
0.0
 32
0.0
 13
1.0
 23
0.0
 33
0.0
 40
0.0
 40
0.0
 40
0.0
 40
0.0
 40
0.0216813094244017
 40
0.0216813094244017
 40
0.2710163678050189
 40
0.2710163678050189
 40
0.2710163678050189
 40
0.4831047770934349
 40
0.4831047770934349
 40
0.7095234843067316
 40
0.7095234843067316
 40
0.7095234843067316
 40
1.0
 40
1.0
 40
1.0
 40
1.0
 10
79.9429430360765
 20
102.4555326305821
 30
0.0
 10
79.94377690394052
 20
102.4713761199984
 30
0.0
 10
79.94377690394052
 20
102.4830502700947
 30
0.0
 10
79.94377690394052
 20
102.5664370564962
 30
0.0
 10
79.92459794306818
 20
102.6264755427053
 30
0.0
 10
79.88540615345944
 20
102.667335068042
 30
0.0
 10
79.84661393307233
 20
102.7077780212116
 30
0.0
 10
79.79701615987382
 20
102.7290412899792
 30
0.0
 10
79.66943437667946
 20
102.7290412899792
 30
0.0
 10
79.60856202260634
 20
102.7065268576508
 30
0.0
 10
79.5535267435813
 20
102.6606641251299
 30
0.0
 10
79.49939368224524
 20
102.6155532406832
 30
0.0
 10
79.45846580708356
 20
102.5472580956238
 30
0.0
 10
79.43178203543506
 20
102.4555326305821
 30
0.0
  0
LINE
  5
8F
330
40
100
AcDbEntity
  8
0012877
  6
Continuous
 62
     7
100
AcDbLine
 10
80.0788634979
 20
102.336289526
 30
0.0
 11
79.4067659995
 21
102.336289526
 31
0.0
  0
SPLINE
  5
90
330
40
100
AcDbEntity
  8
0012877
  6
Continuous
 62
     7
100
AcDbSpline
210
0.0
220
0.0
230
1.0
 70
     8
 71
     3
 72
    17
 73
    13
 74
     0
 42
0.0000000125435349
 43
0.0000000001
 12
1.0
 22
0.0
 32
0.0
 13
1.0
 23
0.0
 33
0.0
 40
0.0
 40
0.0
 40
0.0
 40
0.0
 40
0.0413881499234959
 40
0.0413881499234959
 40
0.2897170494644729
 40
0.2897170494644729
 40
0.5380459490054523
 40
0.5380459490054523
 40
0.5380459490054523
 40
0.7690229745027296
 40
0.7690229745027296
 40
1.0
 40
1.0
 40
1.0
 40
1.0
 10
79.40676599951462
 20
102.3362895260279
 30
0.0
 10
79.40509826378657
 20
102.3179444330196
 30
0.0
 10
79.40426439592257
 20
102.3021009436033
 30
0.0
 10
79.40426439592257
 20
102.2028706677855
 30
0.0
 10
79.42344335679492
 20
102.1378289743923
 30
0.0
 10
79.50182693601236
 20
102.0477712450786
 30
0.0
 10
79.55019127212528
 20
102.0252568127502
 30
0.0
 10
79.6068942868783
 20
102.0260906806142
 30
0.0
 10
79.66023803113572
 20
102.0268751474415
 30
0.0
 10
79.71196163774425
 20
102.0427680378945
 30
0.0
 10
79.81536125288214
 20
102.1111452027438
 30
0.0
 10
79.8553869103549
 20
102.1611772745847
 30
0.0
 10
79.88373841773142
 20
102.2262189679779
 30
0.0
  0
LINE
  5
91
330
40
100
AcDbEntity
  8
0012877
  6
Continuous
 62
     7
100
AcDbLine
 10
79.8837384177
 20
102.226218968
 30
0.0
 11
80.0346685011
 21
102.2112093464
 31
0.0
  0
SPLINE
  5
92
330
40
100
AcDbEntity
  8
0012877
  6
Continuous
 62
     7
100
AcDbSpline
210
0.0
220
0.0
230
1.0
 70
     8
 71
     3
 72
    34
 73
    30
 74
     0
 42
0.0000000036317927
 43
0.0000000001
 12
1.0
 22
0.0
 32
0.0
 13
1.0
 23
0.0
 33
0.0
 40
0.0
 40
0.0
 40
0.0
 40
0.0
 40
0.0971041639436982
 40
0.0971041639436982
 40
0.0971041639436982
 40
0.2099423133125271
 40
0.2099423133125271
 40
0.2802491602269508
 40
0.2802491602269508
 40
0.2802491602269508
 40
0.3503317846186257
 40
0.3503317846186257
 40
0.3503317846186257
 40
0.4317482831038175
 40
0.4317482831038175
 40
0.5382160118921459
 40
0.5382160118921459
 40
0.5382160118921459
 40
0.6404936102112891
 40
0.6404936102112891
 40
0.6404936102112891
 40
0.727328591886137
 40
0.727328591886137
 40
0.8388519507038366
 40
0.8388519507038366
 40
0.8388519507038366
 40
0.9549119447565138
 40
0.9549119447565138
 40
1.0
 40
1.0
 40
1.0
 40
1.0
 10
80.03466850111819
 20
102.2112093464256
 30
0.0
 10
80.0129879366538
 20
102.1369951065282
 30
0.0
 10
79.96295586481287
 20
102.0661163380869
 30
0.0
 10
79.88457228559544
 20
101.9994069089657
 30
0.0
 10
79.8062607311948
 20
101.9327587775609
 30
0.0
 10
79.71446324133629
 20
101.8985088974199
 30
0.0
 10
79.53851712202905
 20
101.8985088974199
 30
0.0
 10
79.47681090009192
 20
101.9143523868361
 30
0.0
 10
79.42010788533887
 20
101.9452054978047
 30
0.0
 10
79.36404825536859
 20
101.9757085317591
 30
0.0
 10
79.32171147738505
 20
102.0210874734301
 30
0.0
 10
79.29169223428049
 20
102.0811259596392
 30
0.0
 10
79.26217331189434
 20
102.1401638044115
 30
0.0
 10
79.24749723748768
 20
102.2078738749696
 30
0.0
 10
79.24749723748768
 20
102.3829861264128
 30
0.0
 10
79.27084553768012
 20
102.4797147986386
 30
0.0
 10
79.31670827020095
 20
102.5731079994083
 30
0.0
 10
79.36224107619842
 20
102.6658293498032
 30
0.0
 10
79.42260948893092
 20
102.7348783650273
 30
0.0
 10
79.49515599310024
 20
102.7807410975481
 30
0.0
 10
79.56792162962124
 20
102.8267423620154
 30
0.0
 10
79.64775381221504
 20
102.8491182623974
 30
0.0
 10
79.84204502453065
 20
102.8491182623974
 30
0.0
 10
79.92876728238825
 20
102.8149296799728
 30
0.0
 10
79.99297510791743
 20
102.7482202508515
 30
0.0
 10
80.0580005689895
 20
102.6806613302572
 30
0.0
 10
80.09053764800723
 20
102.5889514888246
 30
0.0
 10
80.09053764800723
 20
102.4280149910696
 30
0.0
 10
80.08636830868717
 20
102.3821522585488
 30
0.0
 10
80.07886349791103
 20
102.3362895260279
 30
0.0
  0
LINE
  5
93
330
40
100
AcDbEntity
  8
0012877
  6
Continuous
 62
     7
100
AcDbLine
 10
79.4317820354
 20
102.4555326306
 30
0.0
 11
79.9429430361
 21
102.4555326306
 31
0.0
  0
LINE
  5
94
330
40
100
AcDbEntity
  8
0012877
  6
Continuous
 62
     7
100
AcDbLine
 10
78.673796147
 20
102.5605999814
 30
0.0
 11
78.5195305922
 21
102.5505935671
 31
0.0
  0
SPLINE
  5
95
330
40
100
AcDbEntity
  8
0012877
  6
Continuous
 62
     7
100
AcDbSpline
210
0.0
220
0.0
230
1.0
 70
     8
 71
     3
 72
    38
 73
    34
 74
     0
 42
0.0000000042500414
 43
0.0000000001
 12
1.0
 22
0.0
 32
0.0
 13
1.0
 23
0.0
 33
0.0
 40
0.0
 40
0.0
 40
0.0
 40
0.0
 40
0.0637829389361779
 40
0.0637829389361779
 40
0.0637829389361779
 40
0.1346526294780071
 40
0.1346526294780071
 40
0.1929631343541968
 40
0.1929631343541968
 40
0.1929631343541968
 40
0.2323447494221134
 40
0.2323447494221134
 40
0.2717263644900302
 40
0.2717263644900302
 40
0.2717263644900302
 40
0.3365437187236583
 40
0.3365437187236583
 40
0.3365437187236583
 40
0.4477445621872879
 40
0.4477445621872879
 40
0.4477445621872879
 40
0.5405398669022413
 40
0.5405398669022413
 40
0.6024034033788765
 40
0.6024034033788765
 40
0.6642669398555113
 40
0.6642669398555113
 40
0.6642669398555113
 40
0.7552966033932317
 40
0.7552966033932317
 40
0.8776483016966168
 40
0.8776483016966168
 40
1.0
 40
1.0
 40
1.0
 40
1.0
 10
78.51953059220222
 20
102.5505935670799
 30
0.0
 10
78.51786285647421
 20
102.6056288461049
 30
0.0
 10
78.49785002773784
 20
102.6489899750337
 30
0.0
 10
78.46199370958516
 20
102.6815108217303
 30
0.0
 10
78.42609483200442
 20
102.7140702688384
 30
0.0
 10
78.37360371599954
 20
102.7290412899792
 30
0.0
 10
78.25352674358132
 20
102.7290412899792
 30
0.0
 10
78.21266721824456
 20
102.716533272019
 30
0.0
 10
78.18264797514
 20
102.6923511039625
 30
0.0
 10
78.15272706366939
 20
102.6682481475001
 30
0.0
 10
78.13845297834719
 20
102.6406512963936
 30
0.0
 10
78.13845297834719
 20
102.5839482816405
 30
0.0
 10
78.15179486417144
 20
102.55893224572
 30
0.0
 10
78.17681090009192
 20
102.5372516812556
 30
0.0
 10
78.19423958501619
 20
102.5221468209879
 30
0.0
 10
78.23851712202905
 20
102.4988937595109
 30
0.0
 10
78.30939589047036
 20
102.4688745164064
 30
0.0
 10
78.42866120931926
 20
102.4183621460704
 30
0.0
 10
78.5020193670579
 20
102.3763151835007
 30
0.0
 10
78.53370634589051
 20
102.3462959403961
 30
0.0
 10
78.58336469884928
 20
102.2992511849615
 30
0.0
 10
78.60792058578788
 20
102.2412285895302
 30
0.0
 10
78.60792058578788
 20
102.1286564278881
 30
0.0
 10
78.59374483209959
 20
102.0844614310953
 30
0.0
 10
78.53870955307458
 20
101.9977391732377
 30
0.0
 10
78.49618229200979
 20
101.9635505908131
 30
0.0
 10
78.44031314512077
 20
101.9377006870286
 30
0.0
 10
78.3837571665177
 20
101.9115329954361
 30
0.0
 10
78.31690070124648
 20
101.8985088974199
 30
0.0
 10
78.13511750689113
 20
101.8985088974199
 30
0.0
 10
78.0458936454415
 20
101.9243588012043
 30
0.0
 10
77.89913290137477
 20
102.0277584163422
 30
0.0
 10
77.86411045108613
 20
102.1119790706078
 30
0.0
 10
77.8674459225422
 20
102.22872057157
 30
0.0
  0
LINE
  5
96
330
40
100
AcDbEntity
  8
0012877
  6
Continuous
 62
     7
100
AcDbLine
 10
77.8674459225
 20
102.2287205716
 30
0.0
 11
78.024213081
 21
102.2378931181
 31
0.0
  0
SPLINE
  5
97
330
40
100
AcDbEntity
  8
0012877
  6
Continuous
 62
     7
100
AcDbSpline
210
0.0
220
0.0
230
1.0
 70
     8
 71
     3
 72
    41
 73
    37
 74
     0
 42
0.0000000042963393
 43
0.0000000001
 12
1.0
 22
0.0
 32
0.0
 13
1.0
 23
0.0
 33
0.0
 40
0.0
 40
0.0
 40
0.0
 40
0.0
 40
0.050716169285775
 40
0.050716169285775
 40
0.050716169285775
 40
0.1030511479805799
 40
0.1030511479805799
 40
0.1553861266753847
 40
0.1553861266753847
 40
0.227235843188591
 40
0.227235843188591
 40
0.227235843188591
 40
0.2769645081253549
 40
0.2769645081253549
 40
0.3131308098975472
 40
0.3131308098975472
 40
0.3131308098975472
 40
0.391519428840655
 40
0.391519428840655
 40
0.391519428840655
 40
0.4674355675235909
 40
0.4674355675235909
 40
0.4674355675235909
 40
0.5193141120191235
 40
0.5193141120191235
 40
0.5711926565146568
 40
0.5711926565146568
 40
0.6622447958333472
 40
0.6622447958333472
 40
0.6622447958333472
 40
0.7738226346552775
 40
0.7738226346552775
 40
0.897098150127895
 40
0.897098150127895
 40
0.897098150127895
 40
1.0
 40
1.0
 40
1.0
 40
1.0
 10
78.02421308097708
 20
102.2378931180741
 30
0.0
 10
78.02421308097708
 20
102.1936981212813
 30
0.0
 10
78.0308840238892
 20
102.1561740674006
 30
0.0
 10
78.04422590971345
 20
102.124487088568
 30
0.0
 10
78.05726956514867
 20
102.0935084069093
 30
0.0
 10
78.08258383145818
 20
102.067784073815
 30
0.0
 10
78.15596420349151
 20
102.0277584163422
 30
0.0
 10
78.1984914645563
 20
102.0185858698381
 30
0.0
 10
78.31523296551848
 20
102.0185858698381
 30
0.0
 10
78.36609890522341
 20
102.0319277556623
 30
0.0
 10
78.40028748764803
 20
102.0594453951748
 30
0.0
 10
78.4340687692712
 20
102.086635207213
 30
0.0
 10
78.45115342735296
 20
102.1186500135199
 30
0.0
 10
78.45115342735296
 20
102.1820239711851
 30
0.0
 10
78.44114701298479
 20
102.2078738749696
 30
0.0
 10
78.4203003163844
 20
102.231222175162
 30
0.0
 10
78.3990393490212
 20
102.2550344586088
 30
0.0
 10
78.34775381221505
 20
102.284589718459
 30
0.0
 10
78.26603476154155
 20
102.3204460366116
 30
0.0
 10
78.1846225229853
 20
102.356167733121
 30
0.0
 10
78.13261590329908
 20
102.3804845228208
 30
0.0
 10
78.10926760310664
 20
102.394660276509
 30
0.0
 10
78.0714925340162
 20
102.4175951398854
 30
0.0
 10
78.04255817398544
 20
102.445526216214
 30
0.0
 10
78.00420025224071
 20
102.5089001738791
 30
0.0
 10
77.99419383787253
 20
102.5455903598958
 30
0.0
 10
77.99419383787253
 20
102.6581625215379
 30
0.0
 10
78.02337921311307
 20
102.719868743475
 30
0.0
 10
78.08008222786613
 20
102.771568551044
 30
0.0
 10
78.1372405809521
 20
102.8236835200341
 30
0.0
 10
78.21683655756463
 20
102.8491182623974
 30
0.0
 10
78.43447607007266
 20
102.8491182623974
 30
0.0
 10
78.52119832793026
 20
102.8224344907489
 30
0.0
 10
78.58040294627534
 20
102.7690669474519
 30
0.0
 10
78.63965292221357
 20
102.7156585184372
 30
0.0
 10
78.67129454345302
 20
102.6464883714417
 30
0.0
 10
78.67379614704508
 20
102.5605999814481
 30
0.0
  0
LINE
  5
98
330
40
100
AcDbEntity
  8
0012877
  6
Continuous
 62
     7
100
AcDbLine
 10
77.7381964036
 20
102.8291054337
 30
0.0
 11
77.8999667692
 21
102.8291054337
 31
0.0
  0
SPLINE
  5
99
330
40
100
AcDbEntity
  8
0012877
  6
Continuous
 62
     7
100
AcDbSpline
210
0.0
220
0.0
230
1.0
 70
     8
 71
     3
 72
    15
 73
    11
 74
     0
 42
0.0000000058610224
 43
0.0000000001
 12
1.0
 22
0.0
 32
0.0
 13
1.0
 23
0.0
 33
0.0
 40
0.0
 40
0.0
 40
0.0
 40
0.0
 40
0.6944103924140683
 40
0.6944103924140683
 40
0.6944103924140683
 40
0.810085554607613
 40
0.810085554607613
 40
0.9257607168011595
 40
0.9257607168011595
 40
1.0
 40
1.0
 40
1.0
 40
1.0
 10
77.89996676923879
 20
102.829105433661
 30
0.0
 10
77.70706533669656
 20
102.4858298296414
 30
0.0
 10
77.51416390415434
 20
102.1425542256217
 30
0.0
 10
77.3212624716121
 20
101.799278621602
 30
0.0
 10
77.26476265964362
 20
101.6987350080846
 30
0.0
 10
77.21536125288216
 20
101.6308373130709
 30
0.0
 10
77.12863899502455
 20
101.5657956196777
 30
0.0
 10
77.07860692318361
 20
101.5491182623974
 30
0.0
 10
76.98688145814194
 20
101.5491182623974
 30
0.0
 10
76.95102513998927
 20
101.5549553374455
 30
0.0
 10
76.91683655756464
 20
101.5674633554057
 30
0.0
  0
LINE
  5
9A
330
40
100
AcDbEntity
  8
0012877
  6
Continuous
 62
     7
100
AcDbLine
 10
76.9168365576
 20
101.5674633554
 30
0.0
 11
76.9268429719
 21
101.7142240995
 31
0.0
  0
SPLINE
  5
9B
330
40
100
AcDbEntity
  8
0012877
  6
Continuous
 62
     7
100
AcDbSpline
210
0.0
220
0.0
230
1.0
 70
     8
 71
     3
 72
    16
 73
    12
 74
     0
 42
0.0000000241250434
 43
0.0000000001
 12
1.0
 22
0.0
 32
0.0
 13
1.0
 23
0.0
 33
0.0
 40
0.0
 40
0.0
 40
0.0
 40
0.0
 40
0.2095933503784936
 40
0.2095933503784936
 40
0.4250087382675028
 40
0.4250087382675028
 40
0.4250087382675028
 40
0.7516385063522185
 40
0.7516385063522185
 40
0.7516385063522185
 40
1.0
 40
1.0
 40
1.0
 40
1.0
 10
76.92684297193283
 20
101.7142240994724
 30
0.0
 10
76.95852995076542
 20
101.7050515529683
 30
0.0
 10
76.99021692959799
 20
101.7008822136482
 30
0.0
 10
77.05108928367112
 20
101.7008822136482
 30
0.0
 10
77.07693918745561
 20
101.7075531565603
 30
0.0
 10
77.09611814832796
 20
101.7225627781126
 30
0.0
 10
77.12053591093918
 20
101.7416723314605
 30
0.0
 10
77.14865182376091
 20
101.7767641892736
 30
0.0
 10
77.17783719900147
 20
101.8284639968426
 30
0.0
 10
77.19459954971829
 20
101.8581573038267
 30
0.0
 10
77.21119191356209
 20
101.8879465711423
 30
0.0
 10
77.22786927084239
 20
101.9176878582922
 30
0.0
  0
LINE
  5
9C
330
40
100
AcDbEntity
  8
0012877
  6
Continuous
 62
     7
100
AcDbLine
 10
77.2278692708
 20
101.9176878583
 30
0.0
 11
77.0761053196
 21
102.8291054337
 31
0.0
  0
LINE
  5
9D
330
40
100
AcDbEntity
  8
0012877
  6
Continuous
 62
     7
100
AcDbLine
 10
77.0761053196
 20
102.8291054337
 30
0.0
 11
77.227035403
 21
102.8291054337
 31
0.0
  0
SPLINE
  5
9E
330
40
100
AcDbEntity
  8
0012877
  6
Continuous
 62
     7
100
AcDbSpline
210
0.0
220
0.0
230
1.0
 70
     8
 71
     3
 72
    11
 73
     7
 74
     0
 42
0.000000013520879
 43
0.0000000001
 12
1.0
 22
0.0
 32
0.0
 13
1.0
 23
0.0
 33
0.0
 40
0.0
 40
0.0
 40
0.0
 40
0.0
 40
0.62825676723626
 40
0.62825676723626
 40
0.62825676723626
 40
1.0
 40
1.0
 40
1.0
 40
1.0
 10
77.22703540297836
 20
102.829105433661
 30
0.0
 10
77.25010574721612
 20
102.6759517026369
 30
0.0
 10
77.27317609145389
 20
102.5227979716127
 30
0.0
 10
77.29624643569164
 20
102.3696442405886
 30
0.0
 10
77.30993015389569
 20
102.2788041354028
 30
0.0
 10
77.3212624716121
 20
102.1878610462332
 30
0.0
 10
77.33126888598028
 20
102.0969694490555
 30
0.0
  0
LINE
  5
9F
330
40
100
AcDbEntity
  8
0012877
  6
Continuous
 62
     7
100
AcDbLine
 10
77.331268886
 20
102.0969694491
 30
0.0
 11
77.7381964036
 21
102.8291054337
 31
0.0
  0
LINE
  5
A0
330
40
100
AcDbEntity
  8
0012877
  6
Continuous
 62
     7
100
AcDbLine
 10
76.9243413683
 20
102.8165974157
 30
0.0
 11
76.760903267
 21
102.8040893977
 31
0.0
  0
SPLINE
  5
A1
330
40
100
AcDbEntity
  8
0012877
  6
Continuous
 62
     7
100
AcDbSpline
210
0.0
220
0.0
230
1.0
 70
     8
 71
     3
 72
    52
 73
    48
 74
     0
 42
0.0000000030977294
 43
0.0000000001
 12
1.0
 22
0.0
 32
0.0
 13
1.0
 23
0.0
 33
0.0
 40
0.0
 40
0.0
 40
0.0
 40
0.0
 40
0.026443311087185
 40
0.026443311087185
 40
0.026443311087185
 40
0.0592893318230168
 40
0.0592893318230168
 40
0.0592893318230168
 40
0.0954649509175289
 40
0.0954649509175289
 40
0.0954649509175289
 40
0.1375755765023413
 40
0.1375755765023413
 40
0.2109295694565278
 40
0.2109295694565278
 40
0.2109295694565278
 40
0.2566304236944028
 40
0.2566304236944028
 40
0.2834706079293457
 40
0.2834706079293457
 40
0.2834706079293457
 40
0.3189590920973943
 40
0.3189590920973943
 40
0.3189590920973943
 40
0.3918908840021614
 40
0.3918908840021614
 40
0.3918908840021614
 40
0.4574597730848548
 40
0.4574597730848548
 40
0.4574597730848548
 40
0.5059181728425448
 40
0.5059181728425448
 40
0.5059181728425448
 40
0.5559035550512076
 40
0.5559035550512076
 40
0.6172492513982034
 40
0.6172492513982034
 40
0.6172492513982034
 40
0.6864613307814712
 40
0.6864613307814712
 40
0.6864613307814712
 40
0.7645155415926748
 40
0.7645155415926748
 40
0.8819422304236907
 40
0.8819422304236907
 40
0.8819422304236907
 40
1.0
 40
1.0
 40
1.0
 40
1.0
 10
76.76090326699376
 20
102.8040893977406
 30
0.0
 10
76.76090326699376
 20
102.8391118480292
 30
0.0
 10
76.75756779553771
 20
102.8674633554057
 30
0.0
 10
76.75173072048959
 20
102.8874761841421
 30
0.0
 10
76.74140143248447
 20
102.922890885874
 30
0.0
 10
76.72254534524907
 20
102.9516840096713
 30
0.0
 10
76.69919704505664
 20
102.9767000455918
 30
0.0
 10
76.67629241802699
 20
103.0012407174092
 30
0.0
 10
76.64249403030358
 20
103.0200611745206
 30
0.0
 10
76.6008006371028
 20
103.0342369282088
 30
0.0
 10
76.55885310704853
 20
103.0484990884273
 30
0.0
 10
76.51241064351717
 20
103.0567513605372
 30
0.0
 10
76.37065310663456
 20
103.0567513605372
 30
0.0
 10
76.29977433819325
 20
103.0359046639368
 30
0.0
 10
76.24890839848831
 20
102.9950451386001
 30
0.0
 10
76.21012332718112
 20
102.9638899173861
 30
0.0
 10
76.19137151587125
 20
102.9216647665667
 30
0.0
 10
76.19137151587125
 20
102.8382779801652
 30
0.0
 10
76.1997101945114
 20
102.8107603406527
 30
0.0
 10
76.2155536839277
 20
102.7865781725963
 30
0.0
 10
76.2317794205928
 20
102.7618125745285
 30
0.0
 10
76.2597486807205
 20
102.7382138364834
 30
0.0
 10
76.30144207392127
 20
102.7148655362909
 30
0.0
 10
76.33076964343826
 20
102.6984420973614
 30
0.0
 10
76.40067234973911
 20
102.665667332314
 30
0.0
 10
76.51157677565317
 20
102.6164691283371
 30
0.0
 10
76.60166239247025
 20
102.5765063359145
 30
0.0
 10
76.66334072690397
 20
102.5447564920318
 30
0.0
 10
76.69752930932859
 20
102.5222420597034
 30
0.0
 10
76.74369098866875
 20
102.491842905016
 30
0.0
 10
76.77758062427408
 20
102.4546987627181
 30
0.0
 10
76.80259666019452
 20
102.4113376337893
 30
0.0
 10
76.82704351882711
 20
102.3689630788262
 30
0.0
 10
76.83928684621121
 20
102.3196121687476
 30
0.0
 10
76.83928684621121
 20
102.1970335927374
 30
0.0
 10
76.81844014961082
 20
102.1336596350722
 30
0.0
 10
76.77674675641006
 20
102.0769566203192
 30
0.0
 10
76.73455004599771
 20
102.0195690941584
 30
0.0
 10
76.67835034845623
 20
101.9743908730453
 30
0.0
 10
76.6049699764229
 20
101.9435377620767
 30
0.0
 10
76.53200027035832
 20
101.9128573174814
 30
0.0
 10
76.449036685852
 20
101.8960072938278
 30
0.0
 10
76.21305208033564
 20
101.8960072938278
 30
0.0
 10
76.09714444723751
 20
101.9268604047964
 30
0.0
 10
76.00708671792384
 20
101.9894004945975
 30
0.0
 10
75.91741966069638
 20
102.0516692843388
 30
0.0
 10
75.87200012395336
 20
102.1628450103127
 30
0.0
 10
75.87116625608935
 20
102.3237815080677
 30
0.0
  0
LINE
  5
A2
330
40
100
AcDbEntity
  8
0012877
  6
Continuous
 62
     7
100
AcDbLine
 10
75.8711662561
 20
102.3237815081
 30
0.0
 11
76.0354382253
 21
102.3387911296
 31
0.0
  0
SPLINE
  5
A3
330
40
100
AcDbEntity
  8
0012877
  6
Continuous
 62
     7
100
AcDbSpline
210
0.0
220
0.0
230
1.0
 70
     8
 71
     3
 72
    53
 73
    49
 74
     0
 42
0.0000000031110146
 43
0.0000000001
 12
1.0
 22
0.0
 32
0.0
 13
1.0
 23
0.0
 33
0.0
 40
0.0
 40
0.0
 40
0.0
 40
0.0
 40
0.0139279295162094
 40
0.0139279295162094
 40
0.0139279295162094
 40
0.0577976464619989
 40
0.0577976464619989
 40
0.0577976464619989
 40
0.1039292770824251
 40
0.1039292770824251
 40
0.1039292770824251
 40
0.1600699665979061
 40
0.1600699665979061
 40
0.239987889319944
 40
0.239987889319944
 40
0.239987889319944
 40
0.3145741291728393
 40
0.3145741291728393
 40
0.3661263831888107
 40
0.3661263831888107
 40
0.4176786372047812
 40
0.4176786372047812
 40
0.4176786372047812
 40
0.4884441251585018
 40
0.4884441251585018
 40
0.4884441251585018
 40
0.5436731416407827
 40
0.5436731416407827
 40
0.5436731416407827
 40
0.5942702858438738
 40
0.5942702858438738
 40
0.6515641108973734
 40
0.6515641108973734
 40
0.6515641108973734
 40
0.7140850984473004
 40
0.7140850984473004
 40
0.7140850984473004
 40
0.7862250893864359
 40
0.7862250893864359
 40
0.8716724572949273
 40
0.8716724572949273
 40
0.8716724572949273
 40
0.9374079905604938
 40
0.9374079905604938
 40
0.9374079905604938
 40
0.9945572165704776
 40
0.9945572165704776
 40
1.0
 40
1.0
 40
1.0
 40
1.0
 10
76.03543822530035
 20
102.33879112962
 30
0.0
 10
76.03488231339102
 20
102.3240594640224
 30
0.0
 10
76.03432640148168
 20
102.3093277984248
 30
0.0
 10
76.03377048957235
 20
102.2945961328272
 30
0.0
 10
76.03194801547778
 20
102.2463005693216
 30
0.0
 10
76.04461077180454
 20
102.2012029320574
 30
0.0
 10
76.06712520413296
 20
102.1611772745847
 30
0.0
 10
76.08943921124776
 20
102.1215079286028
 30
0.0
 10
76.12632982247804
 20
102.0902985061434
 30
0.0
 10
76.177195762183
 20
102.068617941679
 30
0.0
 10
76.22906814645337
 20
102.0465084008424
 30
0.0
 10
76.28976792382507
 20
102.0352632271184
 30
0.0
 10
76.46154470381224
 20
102.0352632271184
 30
0.0
 10
76.53826054730166
 20
102.0569437915828
 30
0.0
 10
76.59079422273462
 20
102.1011387883756
 30
0.0
 10
76.64381618697732
 20
102.1457445678179
 30
0.0
 10
76.67001166981609
 20
102.1961997248733
 30
0.0
 10
76.67001166981609
 20
102.2920945292351
 30
0.0
 10
76.65666978399184
 20
102.3279508473878
 30
0.0
 10
76.59996676923879
 20
102.392992540781
 30
0.0
 10
76.52241705788536
 20
102.4363536697098
 30
0.0
 10
76.394835274691
 20
102.4913889487348
 30
0.0
 10
76.29640913400947
 20
102.5338472839308
 30
0.0
 10
76.22889556975194
 20
102.5664370564962
 30
0.0
 10
76.19303925159927
 20
102.5897853566886
 30
0.0
 10
76.13644264763329
 20
102.6266389592711
 30
0.0
 10
76.09464284364546
 20
102.667335068042
 30
0.0
 10
76.06795907199697
 20
102.7106961969708
 30
0.0
 10
76.0409031018169
 20
102.7546621485135
 30
0.0
 10
76.02793341452423
 20
102.8040893977406
 30
0.0
 10
76.02793341452423
 20
102.9250002380228
 30
0.0
 10
76.04544463966855
 20
102.9833709885039
 30
0.0
 10
76.08130095782121
 20
103.0350707960728
 30
0.0
 10
76.11727694399514
 20
103.0869431482306
 30
0.0
 10
76.16802321567883
 20
103.1267962611145
 30
0.0
 10
76.23640038052808
 20
103.154313900627
 30
0.0
 10
76.3040599045841
 20
103.1815427334788
 30
0.0
 10
76.38065952100274
 20
103.1960072938278
 30
0.0
 10
76.56827979040622
 20
103.1960072938278
 30
0.0
 10
76.6541681803998
 20
103.1784960686835
 30
0.0
 10
76.72421308097708
 20
103.1443074862589
 30
0.0
 10
76.79458668029808
 20
103.1099584675427
 30
0.0
 10
76.84512392125932
 20
103.0634223034494
 30
0.0
 10
76.8768109000919
 20
103.0067192886963
 30
0.0
 10
76.90885297361149
 20
102.9493808413455
 30
0.0
 10
76.92434136834076
 20
102.8949809949183
 30
0.0
 10
76.92434136834076
 20
102.8374441123012
 30
0.0
 10
76.92434136834076
 20
102.829105433661
 30
0.0
 10
76.92434136834076
 20
102.8165974157008
 30
0.0
  0
LINE
  5
A4
330
40
100
AcDbEntity
  8
0012877
  6
Continuous
 62
     7
100
AcDbLine
 10
81.4194075243
 20
101.1106354313
 30
0.0
 11
81.4974724724
 21
101.3606354313
 31
0.0
  0
LINE
  5
A5
330
40
100
AcDbEntity
  8
0012877
  6
Continuous
 62
     7
100
AcDbLine
 10
81.4974724724
 20
101.3606354313
 30
0.0
 11
75.3190917882
 21
101.3606354313
 31
0.0
  0
LINE
  5
A6
330
40
100
AcDbEntity
  8
0012877
  6
Continuous
 62
     7
100
AcDbLine
 10
74.681583141
 20
112.2411435055
 30
0.0
 11
74.681583141
 21
125.1411435055
 31
0.0
  0
ARC
  5
A7
330
40
100
AcDbEntity
  8
0012877
  6
Continuous
 62
     7
100
AcDbCircle
 10
73.631583141
 20
112.2411435055
 30
0.0
 40
1.049999999999995
100
AcDbArc
 50
180.0
 51
0.0
  0
LINE
  5
A8
330
40
100
AcDbEntity
  8
0012877
  6
Continuous
 62
     7
100
AcDbLine
 10
72.581583141
 20
125.1411435055
 30
0.0
 11
72.581583141
 21
112.2411435055
 31
0.0
  0
ARC
  5
A9
330
40
100
AcDbEntity
  8
0012877
  6
Continuous
 62
     7
100
AcDbCircle
 10
73.631583141
 20
125.1411435055
 30
0.0
 40
1.049999999999995
100
AcDbArc
 50
0.0
 51
180.0
  0
LINE
  5
AA
330
40
100
AcDbEntity
  8
0012877
  6
Continuous
 62
     7
100
AcDbLine
 10
81.681583141
 20
132.2411435055
 30
0.0
 11
81.681583141
 21
145.1411435055
 31
0.0
  0
ARC
  5
AB
330
40
100
AcDbEntity
  8
0012877
  6
Continuous
 62
     7
100
AcDbCircle
 10
80.631583141
 20
132.2411435055
 30
0.0
 40
1.049999999999995
100
AcDbArc
 50
180.0
 51
0.0
  0
LINE
  5
AC
330
40
100
AcDbEntity
  8
0012877
  6
Continuous
 62
     7
100
AcDbLine
 10
79.581583141
 20
145.1411435055
 30
0.0
 11
79.581583141
 21
132.2411435055
 31
0.0
  0
ARC
  5
AD
330
40
100
AcDbEntity
  8
0012877
  6
Continuous
 62
     7
100
AcDbCircle
 10
80.631583141
 20
145.1411435055
 30
0.0
 40
1.049999999999995
100
AcDbArc
 50
0.0
 51
180.0
  0
LINE
  5
AE
330
40
100
AcDbEntity
  8
0012877
  6
Continuous
 62
     7
100
AcDbLine
 10
81.681583141
 20
112.2411435055
 30
0.0
 11
81.681583141
 21
125.1411435055
 31
0.0
  0
ARC
  5
AF
330
40
100
AcDbEntity
  8
0012877
  6
Continuous
 62
     7
100
AcDbCircle
 10
80.631583141
 20
112.2411435055
 30
0.0
 40
1.049999999999995
100
AcDbArc
 50
180.0
 51
0.0
  0
LINE
  5
B0
330
40
100
AcDbEntity
  8
0012877
  6
Continuous
 62
     7
100
AcDbLine
 10
79.581583141
 20
125.1411435055
 30
0.0
 11
79.581583141
 21
112.2411435055
 31
0.0
  0
ARC
  5
B1
330
40
100
AcDbEntity
  8
0012877
  6
Continuous
 62
     7
100
AcDbCircle
 10
80.631583141
 20
125.1411435055
 30
0.0
 40
1.049999999999995
100
AcDbArc
 50
0.0
 51
180.0
  0
LINE
  5
B2
330
40
100
AcDbEntity
  8
0012877
  6
Continuous
 62
     7
100
AcDbLine
 10
88.681583141
 20
132.2411435055
 30
0.0
 11
88.681583141
 21
145.1411435055
 31
0.0
  0
ARC
  5
B3
330
40
100
AcDbEntity
  8
0012877
  6
Continuous
 62
     7
100
AcDbCircle
 10
87.631583141
 20
132.2411435055
 30
0.0
 40
1.049999999999995
100
AcDbArc
 50
180.0
 51
0.0
  0
LINE
  5
B4
330
40
100
AcDbEntity
  8
0012877
  6
Continuous
 62
     7
100
AcDbLine
 10
86.581583141
 20
145.1411435055
 30
0.0
 11
86.581583141
 21
132.2411435055
 31
0.0
  0
ARC
  5
B5
330
40
100
AcDbEntity
  8
0012877
  6
Continuous
 62
     7
100
AcDbCircle
 10
87.631583141
 20
145.1411435055
 30
0.0
 40
1.049999999999995
100
AcDbArc
 50
0.0
 51
180.0
  0
LINE
  5
B6
330
40
100
AcDbEntity
  8
0012877
  6
Continuous
 62
     7
100
AcDbLine
 10
88.681583141
 20
112.2411435055
 30
0.0
 11
88.681583141
 21
125.1411435055
 31
0.0
  0
ARC
  5
B7
330
40
100
AcDbEntity
  8
0012877
  6
Continuous
 62
     7
100
AcDbCircle
 10
87.631583141
 20
112.2411435055
 30
0.0
 40
1.049999999999995
100
AcDbArc
 50
180.0
 51
0.0
  0
LINE
  5
B8
330
40
100
AcDbEntity
  8
0012877
  6
Continuous
 62
     7
100
AcDbLine
 10
86.581583141
 20
125.1411435055
 30
0.0
 11
86.581583141
 21
112.2411435055
 31
0.0
  0
ARC
  5
B9
330
40
100
AcDbEntity
  8
0012877
  6
Continuous
 62
     7
100
AcDbCircle
 10
87.631583141
 20
125.1411435055
 30
0.0
 40
1.049999999999995
100
AcDbArc
 50
0.0
 51
180.0
  0
LINE
  5
BA
330
40
100
AcDbEntity
  8
0012877
  6
Continuous
 62
     7
100
AcDbLine
 10
95.681583141
 20
132.2411435055
 30
0.0
 11
95.681583141
 21
145.1411435055
 31
0.0
  0
ARC
  5
BB
330
40
100
AcDbEntity
  8
0012877
  6
Continuous
 62
     7
100
AcDbCircle
 10
94.631583141
 20
132.2411435055
 30
0.0
 40
1.049999999999995
100
AcDbArc
 50
180.0
 51
0.0
  0
LINE
  5
BC
330
40
100
AcDbEntity
  8
0012877
  6
Continuous
 62
     7
100
AcDbLine
 10
93.581583141
 20
145.1411435055
 30
0.0
 11
93.581583141
 21
132.2411435055
 31
0.0
  0
ARC
  5
BD
330
40
100
AcDbEntity
  8
0012877
  6
Continuous
 62
     7
100
AcDbCircle
 10
94.631583141
 20
145.1411435055
 30
0.0
 40
1.049999999999995
100
AcDbArc
 50
0.0
 51
180.0
  0
LINE
  5
BE
330
40
100
AcDbEntity
  8
0012877
  6
Continuous
 62
     7
100
AcDbLine
 10
95.681583141
 20
112.2411435055
 30
0.0
 11
95.681583141
 21
125.1411435055
 31
0.0
  0
ARC
  5
BF
330
40
100
AcDbEntity
  8
0012877
  6
Continuous
 62
     7
100
AcDbCircle
 10
94.631583141
 20
112.2411435055
 30
0.0
 40
1.049999999999995
100
AcDbArc
 50
180.0
 51
0.0
  0
LINE
  5
C0
330
40
100
AcDbEntity
  8
0012877
  6
Continuous
 62
     7
100
AcDbLine
 10
93.581583141
 20
125.1411435055
 30
0.0
 11
93.581583141
 21
112.2411435055
 31
0.0
  0
ARC
  5
C1
330
40
100
AcDbEntity
  8
0012877
  6
Continuous
 62
     7
100
AcDbCircle
 10
94.631583141
 20
125.1411435055
 30
0.0
 40
1.049999999999995
100
AcDbArc
 50
0.0
 51
180.0
  0
LINE
  5
C2
330
40
100
AcDbEntity
  8
0012877
  6
Continuous
 62
     7
100
AcDbLine
 10
102.681583141
 20
132.2411435055
 30
0.0
 11
102.681583141
 21
145.1411435055
 31
0.0
  0
ARC
  5
C3
330
40
100
AcDbEntity
  8
0012877
  6
Continuous
 62
     7
100
AcDbCircle
 10
101.631583141
 20
132.2411435055
 30
0.0
 40
1.049999999999995
100
AcDbArc
 50
180.0
 51
0.0
  0
LINE
  5
C4
330
40
100
AcDbEntity
  8
0012877
  6
Continuous
 62
     7
100
AcDbLine
 10
100.581583141
 20
145.1411435055
 30
0.0
 11
100.581583141
 21
132.2411435055
 31
0.0
  0
ARC
  5
C5
330
40
100
AcDbEntity
  8
0012877
  6
Continuous
 62
     7
100
AcDbCircle
 10
101.631583141
 20
145.1411435055
 30
0.0
 40
1.049999999999995
100
AcDbArc
 50
0.0
 51
180.0
  0
LINE
  5
C6
330
40
100
AcDbEntity
  8
0012877
  6
Continuous
 62
     7
100
AcDbLine
 10
102.681583141
 20
112.2411435055
 30
0.0
 11
102.681583141
 21
125.1411435055
 31
0.0
  0
ARC
  5
C7
330
40
100
AcDbEntity
  8
0012877
  6
Continuous
 62
     7
100
AcDbCircle
 10
101.631583141
 20
112.2411435055
 30
0.0
 40
1.049999999999995
100
AcDbArc
 50
180.0
 51
0.0
  0
LINE
  5
C8
330
40
100
AcDbEntity
  8
0012877
  6
Continuous
 62
     7
100
AcDbLine
 10
100.581583141
 20
125.1411435055
 30
0.0
 11
100.581583141
 21
112.2411435055
 31
0.0
  0
ARC
  5
C9
330
40
100
AcDbEntity
  8
0012877
  6
Continuous
 62
     7
100
AcDbCircle
 10
101.631583141
 20
125.1411435055
 30
0.0
 40
1.049999999999995
100
AcDbArc
 50
0.0
 51
180.0
  0
LINE
  5
CA
330
40
100
AcDbEntity
  8
0012877
  6
Continuous
 62
     7
100
AcDbLine
 10
109.681583141
 20
132.2411435055
 30
0.0
 11
109.681583141
 21
145.1411435055
 31
0.0
  0
ARC
  5
CB
330
40
100
AcDbEntity
  8
0012877
  6
Continuous
 62
     7
100
AcDbCircle
 10
108.631583141
 20
132.2411435055
 30
0.0
 40
1.049999999999995
100
AcDbArc
 50
180.0
 51
0.0
  0
LINE
  5
CC
330
40
100
AcDbEntity
  8
0012877
  6
Continuous
 62
     7
100
AcDbLine
 10
107.581583141
 20
145.1411435055
 30
0.0
 11
107.581583141
 21
132.2411435055
 31
0.0
  0
ARC
  5
CD
330
40
100
AcDbEntity
  8
0012877
  6
Continuous
 62
     7
100
AcDbCircle
 10
108.631583141
 20
145.1411435055
 30
0.0
 40
1.049999999999995
100
AcDbArc
 50
0.0
 51
180.0
  0
LINE
  5
CE
330
40
100
AcDbEntity
  8
0012877
  6
Continuous
 62
     7
100
AcDbLine
 10
109.681583141
 20
112.2411435055
 30
0.0
 11
109.681583141
 21
125.1411435055
 31
0.0
  0
ARC
  5
CF
330
40
100
AcDbEntity
  8
0012877
  6
Continuous
 62
     7
100
AcDbCircle
 10
108.631583141
 20
112.2411435055
 30
0.0
 40
1.049999999999995
100
AcDbArc
 50
180.0
 51
0.0
  0
LINE
  5
D0
330
40
100
AcDbEntity
  8
0012877
  6
Continuous
 62
     7
100
AcDbLine
 10
107.581583141
 20
125.1411435055
 30
0.0
 11
107.581583141
 21
112.2411435055
 31
0.0
  0
ARC
  5
D1
330
40
100
AcDbEntity
  8
0012877
  6
Continuous
 62
     7
100
AcDbCircle
 10
108.631583141
 20
125.1411435055
 30
0.0
 40
1.049999999999995
100
AcDbArc
 50
0.0
 51
180.0
  0
LINE
  5
D2
330
40
100
AcDbEntity
  8
0012877
  6
Continuous
 62
     7
100
AcDbLine
 10
116.681583141
 20
132.2411435055
 30
0.0
 11
116.681583141
 21
145.1411435055
 31
0.0
  0
ARC
  5
D3
330
40
100
AcDbEntity
  8
0012877
  6
Continuous
 62
     7
100
AcDbCircle
 10
115.631583141
 20
132.2411435055
 30
0.0
 40
1.049999999999995
100
AcDbArc
 50
180.0
 51
0.0
  0
LINE
  5
D4
330
40
100
AcDbEntity
  8
0012877
  6
Continuous
 62
     7
100
AcDbLine
 10
114.581583141
 20
145.1411435055
 30
0.0
 11
114.581583141
 21
132.2411435055
 31
0.0
  0
ARC
  5
D5
330
40
100
AcDbEntity
  8
0012877
  6
Continuous
 62
     7
100
AcDbCircle
 10
115.631583141
 20
145.1411435055
 30
0.0
 40
1.049999999999995
100
AcDbArc
 50
0.0
 51
180.0
  0
LINE
  5
D6
330
40
100
AcDbEntity
  8
0012877
  6
Continuous
 62
     7
100
AcDbLine
 10
116.681583141
 20
112.2411435055
 30
0.0
 11
116.681583141
 21
125.1411435055
 31
0.0
  0
ARC
  5
D7
330
40
100
AcDbEntity
  8
0012877
  6
Continuous
 62
     7
100
AcDbCircle
 10
115.631583141
 20
112.2411435055
 30
0.0
 40
1.049999999999995
100
AcDbArc
 50
180.0
 51
0.0
  0
LINE
  5
D8
330
40
100
AcDbEntity
  8
0012877
  6
Continuous
 62
     7
100
AcDbLine
 10
114.581583141
 20
125.1411435055
 30
0.0
 11
114.581583141
 21
112.2411435055
 31
0.0
  0
ARC
  5
D9
330
40
100
AcDbEntity
  8
0012877
  6
Continuous
 62
     7
100
AcDbCircle
 10
115.631583141
 20
125.1411435055
 30
0.0
 40
1.049999999999995
100
AcDbArc
 50
0.0
 51
180.0
  0
LINE
  5
DA
330
40
100
AcDbEntity
  8
0012877
  6
Continuous
 62
     7
100
AcDbLine
 10
123.681583141
 20
132.2411435055
 30
0.0
 11
123.681583141
 21
145.1411435055
 31
0.0
  0
ARC
  5
DB
330
40
100
AcDbEntity
  8
0012877
  6
Continuous
 62
     7
100
AcDbCircle
 10
122.631583141
 20
132.2411435055
 30
0.0
 40
1.049999999999995
100
AcDbArc
 50
180.0
 51
0.0
  0
LINE
  5
DC
330
40
100
AcDbEntity
  8
0012877
  6
Continuous
 62
     7
100
AcDbLine
 10
121.581583141
 20
145.1411435055
 30
0.0
 11
121.581583141
 21
132.2411435055
 31
0.0
  0
ARC
  5
DD
330
40
100
AcDbEntity
  8
0012877
  6
Continuous
 62
     7
100
AcDbCircle
 10
122.631583141
 20
145.1411435055
 30
0.0
 40
1.049999999999995
100
AcDbArc
 50
0.0
 51
180.0
  0
LINE
  5
DE
330
40
100
AcDbEntity
  8
0012877
  6
Continuous
 62
     7
100
AcDbLine
 10
123.681583141
 20
112.2411435055
 30
0.0
 11
123.681583141
 21
125.1411435055
 31
0.0
  0
ARC
  5
DF
330
40
100
AcDbEntity
  8
0012877
  6
Continuous
 62
     7
100
AcDbCircle
 10
122.631583141
 20
112.2411435055
 30
0.0
 40
1.049999999999995
100
AcDbArc
 50
180.0
 51
0.0
  0
LINE
  5
E0
330
40
100
AcDbEntity
  8
0012877
  6
Continuous
 62
     7
100
AcDbLine
 10
121.581583141
 20
125.1411435055
 30
0.0
 11
121.581583141
 21
112.2411435055
 31
0.0
  0
ARC
  5
E1
330
40
100
AcDbEntity
  8
0012877
  6
Continuous
 62
     7
100
AcDbCircle
 10
122.631583141
 20
125.1411435055
 30
0.0
 40
1.049999999999995
100
AcDbArc
 50
0.0
 51
180.0
  0
LINE
  5
E2
330
40
100
AcDbEntity
  8
0012877
  6
Continuous
 62
     7
100
AcDbLine
 10
130.681583141
 20
132.2411435055
 30
0.0
 11
130.681583141
 21
145.1411435055
 31
0.0
  0
ARC
  5
E3
330
40
100
AcDbEntity
  8
0012877
  6
Continuous
 62
     7
100
AcDbCircle
 10
129.631583141
 20
132.2411435055
 30
0.0
 40
1.049999999999995
100
AcDbArc
 50
180.0
 51
0.0
  0
LINE
  5
E4
330
40
100
AcDbEntity
  8
0012877
  6
Continuous
 62
     7
100
AcDbLine
 10
128.581583141
 20
145.1411435055
 30
0.0
 11
128.581583141
 21
132.2411435055
 31
0.0
  0
ARC
  5
E5
330
40
100
AcDbEntity
  8
0012877
  6
Continuous
 62
     7
100
AcDbCircle
 10
129.631583141
 20
145.1411435055
 30
0.0
 40
1.049999999999995
100
AcDbArc
 50
0.0
 51
180.0
  0
LINE
  5
E6
330
40
100
AcDbEntity
  8
0012877
  6
Continuous
 62
     7
100
AcDbLine
 10
130.681583141
 20
112.2411435055
 30
0.0
 11
130.681583141
 21
125.1411435055
 31
0.0
  0
ARC
  5
E7
330
40
100
AcDbEntity
  8
0012877
  6
Continuous
 62
     7
100
AcDbCircle
 10
129.631583141
 20
112.2411435055
 30
0.0
 40
1.049999999999995
100
AcDbArc
 50
180.0
 51
0.0
  0
LINE
  5
E8
330
40
100
AcDbEntity
  8
0012877
  6
Continuous
 62
     7
100
AcDbLine
 10
128.581583141
 20
125.1411435055
 30
0.0
 11
128.581583141
 21
112.2411435055
 31
0.0
  0
ARC
  5
E9
330
40
100
AcDbEntity
  8
0012877
  6
Continuous
 62
     7
100
AcDbCircle
 10
129.631583141
 20
125.1411435055
 30
0.0
 40
1.049999999999995
100
AcDbArc
 50
0.0
 51
180.0
  0
LINE
  5
EA
330
40
100
AcDbEntity
  8
0012877
  6
Continuous
 62
     7
100
AcDbLine
 10
137.681583141
 20
132.2411435055
 30
0.0
 11
137.681583141
 21
145.1411435055
 31
0.0
  0
ARC
  5
EB
330
40
100
AcDbEntity
  8
0012877
  6
Continuous
 62
     7
100
AcDbCircle
 10
136.631583141
 20
132.2411435055
 30
0.0
 40
1.049999999999995
100
AcDbArc
 50
180.0
 51
0.0
  0
LINE
  5
EC
330
40
100
AcDbEntity
  8
0012877
  6
Continuous
 62
     7
100
AcDbLine
 10
135.581583141
 20
145.1411435055
 30
0.0
 11
135.581583141
 21
132.2411435055
 31
0.0
  0
ARC
  5
ED
330
40
100
AcDbEntity
  8
0012877
  6
Continuous
 62
     7
100
AcDbCircle
 10
136.631583141
 20
145.1411435055
 30
0.0
 40
1.049999999999995
100
AcDbArc
 50
0.0
 51
180.0
  0
LINE
  5
EE
330
40
100
AcDbEntity
  8
0012877
  6
Continuous
 62
     7
100
AcDbLine
 10
137.681583141
 20
112.2411435055
 30
0.0
 11
137.681583141
 21
125.1411435055
 31
0.0
  0
ARC
  5
EF
330
40
100
AcDbEntity
  8
0012877
  6
Continuous
 62
     7
100
AcDbCircle
 10
136.631583141
 20
112.2411435055
 30
0.0
 40
1.049999999999995
100
AcDbArc
 50
180.0
 51
0.0
  0
LINE
  5
F0
330
40
100
AcDbEntity
  8
0012877
  6
Continuous
 62
     7
100
AcDbLine
 10
135.581583141
 20
125.1411435055
 30
0.0
 11
135.581583141
 21
112.2411435055
 31
0.0
  0
ARC
  5
F1
330
40
100
AcDbEntity
  8
0012877
  6
Continuous
 62
     7
100
AcDbCircle
 10
136.631583141
 20
125.1411435055
 30
0.0
 40
1.049999999999995
100
AcDbArc
 50
0.0
 51
180.0
  0
LINE
  5
F2
330
40
100
AcDbEntity
  8
0012877
  6
Continuous
 62
     7
100
AcDbLine
 10
144.681583141
 20
132.2411435055
 30
0.0
 11
144.681583141
 21
145.1411435055
 31
0.0
  0
ARC
  5
F3
330
40
100
AcDbEntity
  8
0012877
  6
Continuous
 62
     7
100
AcDbCircle
 10
143.631583141
 20
132.2411435055
 30
0.0
 40
1.049999999999995
100
AcDbArc
 50
180.0
 51
0.0
  0
LINE
  5
F4
330
40
100
AcDbEntity
  8
0012877
  6
Continuous
 62
     7
100
AcDbLine
 10
142.581583141
 20
145.1411435055
 30
0.0
 11
142.581583141
 21
132.2411435055
 31
0.0
  0
ARC
  5
F5
330
40
100
AcDbEntity
  8
0012877
  6
Continuous
 62
     7
100
AcDbCircle
 10
143.631583141
 20
145.1411435055
 30
0.0
 40
1.049999999999995
100
AcDbArc
 50
0.0
 51
180.0
  0
LINE
  5
F6
330
40
100
AcDbEntity
  8
0012877
  6
Continuous
 62
     7
100
AcDbLine
 10
144.681583141
 20
112.2411435055
 30
0.0
 11
144.681583141
 21
125.1411435055
 31
0.0
  0
ARC
  5
F7
330
40
100
AcDbEntity
  8
0012877
  6
Continuous
 62
     7
100
AcDbCircle
 10
143.631583141
 20
112.2411435055
 30
0.0
 40
1.049999999999995
100
AcDbArc
 50
180.0
 51
0.0
  0
LINE
  5
F8
330
40
100
AcDbEntity
  8
0012877
  6
Continuous
 62
     7
100
AcDbLine
 10
142.581583141
 20
125.1411435055
 30
0.0
 11
142.581583141
 21
112.2411435055
 31
0.0
  0
ARC
  5
F9
330
40
100
AcDbEntity
  8
0012877
  6
Continuous
 62
     7
100
AcDbCircle
 10
143.631583141
 20
125.1411435055
 30
0.0
 40
1.049999999999995
100
AcDbArc
 50
0.0
 51
180.0
  0
LINE
  5
FA
330
40
100
AcDbEntity
  8
0012877
  6
Continuous
 62
     7
100
AcDbLine
 10
151.681583141
 20
132.2411435055
 30
0.0
 11
151.681583141
 21
145.1411435055
 31
0.0
  0
ARC
  5
FB
330
40
100
AcDbEntity
  8
0012877
  6
Continuous
 62
     7
100
AcDbCircle
 10
150.631583141
 20
132.2411435055
 30
0.0
 40
1.049999999999995
100
AcDbArc
 50
180.0
 51
0.0
  0
LINE
  5
FC
330
40
100
AcDbEntity
  8
0012877
  6
Continuous
 62
     7
100
AcDbLine
 10
149.581583141
 20
145.1411435055
 30
0.0
 11
149.581583141
 21
132.2411435055
 31
0.0
  0
ARC
  5
FD
330
40
100
AcDbEntity
  8
0012877
  6
Continuous
 62
     7
100
AcDbCircle
 10
150.631583141
 20
145.1411435055
 30
0.0
 40
1.049999999999995
100
AcDbArc
 50
0.0
 51
180.0
  0
LINE
  5
FE
330
40
100
AcDbEntity
  8
0012877
  6
Continuous
 62
     7
100
AcDbLine
 10
151.681583141
 20
112.2411435055
 30
0.0
 11
151.681583141
 21
125.1411435055
 31
0.0
  0
ARC
  5
FF
330
40
100
AcDbEntity
  8
0012877
  6
Continuous
 62
     7
100
AcDbCircle
 10
150.631583141
 20
112.2411435055
 30
0.0
 40
1.049999999999995
100
AcDbArc
 50
180.0
 51
0.0
  0
LINE
  5
100
330
40
100
AcDbEntity
  8
0012877
  6
Continuous
 62
     7
100
AcDbLine
 10
149.581583141
 20
125.1411435055
 30
0.0
 11
149.581583141
 21
112.2411435055
 31
0.0
  0
ARC
  5
101
330
40
100
AcDbEntity
  8
0012877
  6
Continuous
 62
     7
100
AcDbCircle
 10
150.631583141
 20
125.1411435055
 30
0.0
 40
1.049999999999995
100
AcDbArc
 50
0.0
 51
180.0
  0
LINE
  5
102
330
40
100
AcDbEntity
  8
0012877
  6
Continuous
 62
     7
100
AcDbLine
 10
158.681583141
 20
132.2411435055
 30
0.0
 11
158.681583141
 21
145.1411435055
 31
0.0
  0
ARC
  5
103
330
40
100
AcDbEntity
  8
0012877
  6
Continuous
 62
     7
100
AcDbCircle
 10
157.631583141
 20
132.2411435055
 30
0.0
 40
1.049999999999995
100
AcDbArc
 50
180.0
 51
0.0
  0
LINE
  5
104
330
40
100
AcDbEntity
  8
0012877
  6
Continuous
 62
     7
100
AcDbLine
 10
156.581583141
 20
145.1411435055
 30
0.0
 11
156.581583141
 21
132.2411435055
 31
0.0
  0
ARC
  5
105
330
40
100
AcDbEntity
  8
0012877
  6
Continuous
 62
     7
100
AcDbCircle
 10
157.631583141
 20
145.1411435055
 30
0.0
 40
1.049999999999995
100
AcDbArc
 50
0.0
 51
180.0
  0
LINE
  5
106
330
40
100
AcDbEntity
  8
0012877
  6
Continuous
 62
     7
100
AcDbLine
 10
158.681583141
 20
112.2411435055
 30
0.0
 11
158.681583141
 21
125.1411435055
 31
0.0
  0
ARC
  5
107
330
40
100
AcDbEntity
  8
0012877
  6
Continuous
 62
     7
100
AcDbCircle
 10
157.631583141
 20
112.2411435055
 30
0.0
 40
1.049999999999995
100
AcDbArc
 50
180.0
 51
0.0
  0
LINE
  5
108
330
40
100
AcDbEntity
  8
0012877
  6
Continuous
 62
     7
100
AcDbLine
 10
156.581583141
 20
125.1411435055
 30
0.0
 11
156.581583141
 21
112.2411435055
 31
0.0
  0
ARC
  5
109
330
40
100
AcDbEntity
  8
0012877
  6
Continuous
 62
     7
100
AcDbCircle
 10
157.631583141
 20
125.1411435055
 30
0.0
 40
1.049999999999995
100
AcDbArc
 50
0.0
 51
180.0
  0
LINE
  5
10A
330
40
100
AcDbEntity
  8
0012877
  6
Continuous
 62
     7
100
AcDbLine
 10
165.681583141
 20
132.2411435055
 30
0.0
 11
165.681583141
 21
145.1411435055
 31
0.0
  0
ARC
  5
10B
330
40
100
AcDbEntity
  8
0012877
  6
Continuous
 62
     7
100
AcDbCircle
 10
164.631583141
 20
132.2411435055
 30
0.0
 40
1.049999999999995
100
AcDbArc
 50
180.0
 51
0.0
  0
LINE
  5
10C
330
40
100
AcDbEntity
  8
0012877
  6
Continuous
 62
     7
100
AcDbLine
 10
163.581583141
 20
145.1411435055
 30
0.0
 11
163.581583141
 21
132.2411435055
 31
0.0
  0
ARC
  5
10D
330
40
100
AcDbEntity
  8
0012877
  6
Continuous
 62
     7
100
AcDbCircle
 10
164.631583141
 20
145.1411435055
 30
0.0
 40
1.049999999999995
100
AcDbArc
 50
0.0
 51
180.0
  0
LINE
  5
10E
330
40
100
AcDbEntity
  8
0012877
  6
Continuous
 62
     7
100
AcDbLine
 10
165.681583141
 20
112.2411435055
 30
0.0
 11
165.681583141
 21
125.1411435055
 31
0.0
  0
ARC
  5
10F
330
40
100
AcDbEntity
  8
0012877
  6
Continuous
 62
     7
100
AcDbCircle
 10
164.631583141
 20
112.2411435055
 30
0.0
 40
1.049999999999995
100
AcDbArc
 50
180.0
 51
0.0
  0
LINE
  5
110
330
40
100
AcDbEntity
  8
0012877
  6
Continuous
 62
     7
100
AcDbLine
 10
163.581583141
 20
125.1411435055
 30
0.0
 11
163.581583141
 21
112.2411435055
 31
0.0
  0
ARC
  5
111
330
40
100
AcDbEntity
  8
0012877
  6
Continuous
 62
     7
100
AcDbCircle
 10
164.631583141
 20
125.1411435055
 30
0.0
 40
1.049999999999995
100
AcDbArc
 50
0.0
 51
180.0
  0
LINE
  5
112
330
40
100
AcDbEntity
  8
0012877
  6
Continuous
 62
     7
100
AcDbLine
 10
172.681583141
 20
132.2411435055
 30
0.0
 11
172.681583141
 21
145.1411435055
 31
0.0
  0
ARC
  5
113
330
40
100
AcDbEntity
  8
0012877
  6
Continuous
 62
     7
100
AcDbCircle
 10
171.631583141
 20
132.2411435055
 30
0.0
 40
1.049999999999995
100
AcDbArc
 50
180.0
 51
0.0
  0
LINE
  5
114
330
40
100
AcDbEntity
  8
0012877
  6
Continuous
 62
     7
100
AcDbLine
 10
170.581583141
 20
145.1411435055
 30
0.0
 11
170.581583141
 21
132.2411435055
 31
0.0
  0
ARC
  5
115
330
40
100
AcDbEntity
  8
0012877
  6
Continuous
 62
     7
100
AcDbCircle
 10
171.631583141
 20
145.1411435055
 30
0.0
 40
1.049999999999995
100
AcDbArc
 50
0.0
 51
180.0
  0
LINE
  5
116
330
40
100
AcDbEntity
  8
0012877
  6
Continuous
 62
     7
100
AcDbLine
 10
172.681583141
 20
112.2411435055
 30
0.0
 11
172.681583141
 21
125.1411435055
 31
0.0
  0
ARC
  5
117
330
40
100
AcDbEntity
  8
0012877
  6
Continuous
 62
     7
100
AcDbCircle
 10
171.631583141
 20
112.2411435055
 30
0.0
 40
1.049999999999995
100
AcDbArc
 50
180.0
 51
0.0
  0
LINE
  5
118
330
40
100
AcDbEntity
  8
0012877
  6
Continuous
 62
     7
100
AcDbLine
 10
170.581583141
 20
125.1411435055
 30
0.0
 11
170.581583141
 21
112.2411435055
 31
0.0
  0
ARC
  5
119
330
40
100
AcDbEntity
  8
0012877
  6
Continuous
 62
     7
100
AcDbCircle
 10
171.631583141
 20
125.1411435055
 30
0.0
 40
1.049999999999995
100
AcDbArc
 50
0.0
 51
180.0
  0
LINE
  5
11A
330
40
100
AcDbEntity
  8
0012877
  6
Continuous
 62
     7
100
AcDbLine
 10
179.681583141
 20
132.2411435055
 30
0.0
 11
179.681583141
 21
145.1411435055
 31
0.0
  0
ARC
  5
11B
330
40
100
AcDbEntity
  8
0012877
  6
Continuous
 62
     7
100
AcDbCircle
 10
178.631583141
 20
132.2411435055
 30
0.0
 40
1.049999999999995
100
AcDbArc
 50
180.0
 51
0.0
  0
LINE
  5
11C
330
40
100
AcDbEntity
  8
0012877
  6
Continuous
 62
     7
100
AcDbLine
 10
177.581583141
 20
145.1411435055
 30
0.0
 11
177.581583141
 21
132.2411435055
 31
0.0
  0
ARC
  5
11D
330
40
100
AcDbEntity
  8
0012877
  6
Continuous
 62
     7
100
AcDbCircle
 10
178.631583141
 20
145.1411435055
 30
0.0
 40
1.049999999999995
100
AcDbArc
 50
0.0
 51
180.0
  0
LINE
  5
11E
330
40
100
AcDbEntity
  8
0012877
  6
Continuous
 62
     7
100
AcDbLine
 10
179.681583141
 20
112.2411435055
 30
0.0
 11
179.681583141
 21
125.1411435055
 31
0.0
  0
ARC
  5
11F
330
40
100
AcDbEntity
  8
0012877
  6
Continuous
 62
     7
100
AcDbCircle
 10
178.631583141
 20
112.2411435055
 30
0.0
 40
1.049999999999995
100
AcDbArc
 50
180.0
 51
0.0
  0
LINE
  5
120
330
40
100
AcDbEntity
  8
0012877
  6
Continuous
 62
     7
100
AcDbLine
 10
177.581583141
 20
125.1411435055
 30
0.0
 11
177.581583141
 21
112.2411435055
 31
0.0
  0
ARC
  5
121
330
40
100
AcDbEntity
  8
0012877
  6
Continuous
 62
     7
100
AcDbCircle
 10
178.631583141
 20
125.1411435055
 30
0.0
 40
1.049999999999995
100
AcDbArc
 50
0.0
 51
180.0
  0
LINE
  5
122
330
40
100
AcDbEntity
  8
0012877
  6
Continuous
 62
     7
100
AcDbLine
 10
186.681583141
 20
132.2411435055
 30
0.0
 11
186.681583141
 21
145.1411435055
 31
0.0
  0
ARC
  5
123
330
40
100
AcDbEntity
  8
0012877
  6
Continuous
 62
     7
100
AcDbCircle
 10
185.631583141
 20
132.2411435055
 30
0.0
 40
1.049999999999995
100
AcDbArc
 50
180.0
 51
0.0
  0
LINE
  5
124
330
40
100
AcDbEntity
  8
0012877
  6
Continuous
 62
     7
100
AcDbLine
 10
184.581583141
 20
145.1411435055
 30
0.0
 11
184.581583141
 21
132.2411435055
 31
0.0
  0
ARC
  5
125
330
40
100
AcDbEntity
  8
0012877
  6
Continuous
 62
     7
100
AcDbCircle
 10
185.631583141
 20
145.1411435055
 30
0.0
 40
1.049999999999995
100
AcDbArc
 50
0.0
 51
180.0
  0
LINE
  5
126
330
40
100
AcDbEntity
  8
0012877
  6
Continuous
 62
     7
100
AcDbLine
 10
186.681583141
 20
112.2411435055
 30
0.0
 11
186.681583141
 21
125.1411435055
 31
0.0
  0
ARC
  5
127
330
40
100
AcDbEntity
  8
0012877
  6
Continuous
 62
     7
100
AcDbCircle
 10
185.631583141
 20
112.2411435055
 30
0.0
 40
1.049999999999995
100
AcDbArc
 50
180.0
 51
0.0
  0
LINE
  5
128
330
40
100
AcDbEntity
  8
0012877
  6
Continuous
 62
     7
100
AcDbLine
 10
184.581583141
 20
125.1411435055
 30
0.0
 11
184.581583141
 21
112.2411435055
 31
0.0
  0
ARC
  5
129
330
40
100
AcDbEntity
  8
0012877
  6
Continuous
 62
     7
100
AcDbCircle
 10
185.631583141
 20
125.1411435055
 30
0.0
 40
1.049999999999995
100
AcDbArc
 50
0.0
 51
180.0
  0
LINE
  5
12A
330
40
100
AcDbEntity
  8
0012877
  6
Continuous
 62
     7
100
AcDbLine
 10
193.681583141
 20
132.2411435055
 30
0.0
 11
193.681583141
 21
145.1411435055
 31
0.0
  0
ARC
  5
12B
330
40
100
AcDbEntity
  8
0012877
  6
Continuous
 62
     7
100
AcDbCircle
 10
192.631583141
 20
132.2411435055
 30
0.0
 40
1.049999999999995
100
AcDbArc
 50
180.0
 51
0.0
  0
LINE
  5
12C
330
40
100
AcDbEntity
  8
0012877
  6
Continuous
 62
     7
100
AcDbLine
 10
191.581583141
 20
145.1411435055
 30
0.0
 11
191.581583141
 21
132.2411435055
 31
0.0
  0
ARC
  5
12D
330
40
100
AcDbEntity
  8
0012877
  6
Continuous
 62
     7
100
AcDbCircle
 10
192.631583141
 20
145.1411435055
 30
0.0
 40
1.049999999999995
100
AcDbArc
 50
0.0
 51
180.0
  0
LINE
  5
12E
330
40
100
AcDbEntity
  8
0012877
  6
Continuous
 62
     7
100
AcDbLine
 10
193.681583141
 20
112.2411435055
 30
0.0
 11
193.681583141
 21
125.1411435055
 31
0.0
  0
ARC
  5
12F
330
40
100
AcDbEntity
  8
0012877
  6
Continuous
 62
     7
100
AcDbCircle
 10
192.631583141
 20
112.2411435055
 30
0.0
 40
1.049999999999995
100
AcDbArc
 50
180.0
 51
0.0
  0
LINE
  5
130
330
40
100
AcDbEntity
  8
0012877
  6
Continuous
 62
     7
100
AcDbLine
 10
191.581583141
 20
125.1411435055
 30
0.0
 11
191.581583141
 21
112.2411435055
 31
0.0
  0
ARC
  5
131
330
40
100
AcDbEntity
  8
0012877
  6
Continuous
 62
     7
100
AcDbCircle
 10
192.631583141
 20
125.1411435055
 30
0.0
 40
1.049999999999995
100
AcDbArc
 50
0.0
 51
180.0
  0
LINE
  5
132
330
40
100
AcDbEntity
  8
0012877
  6
Continuous
 62
     7
100
AcDbLine
 10
200.681583141
 20
132.2411435055
 30
0.0
 11
200.681583141
 21
145.1411435055
 31
0.0
  0
ARC
  5
133
330
40
100
AcDbEntity
  8
0012877
  6
Continuous
 62
     7
100
AcDbCircle
 10
199.631583141
 20
132.2411435055
 30
0.0
 40
1.049999999999995
100
AcDbArc
 50
180.0
 51
0.0
  0
LINE
  5
134
330
40
100
AcDbEntity
  8
0012877
  6
Continuous
 62
     7
100
AcDbLine
 10
198.581583141
 20
145.1411435055
 30
0.0
 11
198.581583141
 21
132.2411435055
 31
0.0
  0
ARC
  5
135
330
40
100
AcDbEntity
  8
0012877
  6
Continuous
 62
     7
100
AcDbCircle
 10
199.631583141
 20
145.1411435055
 30
0.0
 40
1.049999999999995
100
AcDbArc
 50
0.0
 51
180.0
  0
LINE
  5
136
330
40
100
AcDbEntity
  8
0012877
  6
Continuous
 62
     7
100
AcDbLine
 10
200.681583141
 20
112.2411435055
 30
0.0
 11
200.681583141
 21
125.1411435055
 31
0.0
  0
ARC
  5
137
330
40
100
AcDbEntity
  8
0012877
  6
Continuous
 62
     7
100
AcDbCircle
 10
199.631583141
 20
112.2411435055
 30
0.0
 40
1.049999999999995
100
AcDbArc
 50
180.0
 51
0.0
  0
LINE
  5
138
330
40
100
AcDbEntity
  8
0012877
  6
Continuous
 62
     7
100
AcDbLine
 10
198.581583141
 20
125.1411435055
 30
0.0
 11
198.581583141
 21
112.2411435055
 31
0.0
  0
ARC
  5
139
330
40
100
AcDbEntity
  8
0012877
  6
Continuous
 62
     7
100
AcDbCircle
 10
199.631583141
 20
125.1411435055
 30
0.0
 40
1.049999999999995
100
AcDbArc
 50
0.0
 51
180.0
  0
LINE
  5
13A
330
40
100
AcDbEntity
  8
0012877
  6
Continuous
 62
     7
100
AcDbLine
 10
207.681583141
 20
132.2411435055
 30
0.0
 11
207.681583141
 21
145.1411435055
 31
0.0
  0
ARC
  5
13B
330
40
100
AcDbEntity
  8
0012877
  6
Continuous
 62
     7
100
AcDbCircle
 10
206.631583141
 20
132.2411435055
 30
0.0
 40
1.049999999999995
100
AcDbArc
 50
180.0
 51
0.0
  0
LINE
  5
13C
330
40
100
AcDbEntity
  8
0012877
  6
Continuous
 62
     7
100
AcDbLine
 10
205.581583141
 20
145.1411435055
 30
0.0
 11
205.581583141
 21
132.2411435055
 31
0.0
  0
ARC
  5
13D
330
40
100
AcDbEntity
  8
0012877
  6
Continuous
 62
     7
100
AcDbCircle
 10
206.631583141
 20
145.1411435055
 30
0.0
 40
1.049999999999995
100
AcDbArc
 50
0.0
 51
180.0
  0
LINE
  5
13E
330
40
100
AcDbEntity
  8
0012877
  6
Continuous
 62
     7
100
AcDbLine
 10
207.681583141
 20
112.2411435055
 30
0.0
 11
207.681583141
 21
125.1411435055
 31
0.0
  0
ARC
  5
13F
330
40
100
AcDbEntity
  8
0012877
  6
Continuous
 62
     7
100
AcDbCircle
 10
206.631583141
 20
112.2411435055
 30
0.0
 40
1.049999999999995
100
AcDbArc
 50
180.0
 51
0.0
  0
LINE
  5
140
330
40
100
AcDbEntity
  8
0012877
  6
Continuous
 62
     7
100
AcDbLine
 10
205.581583141
 20
125.1411435055
 30
0.0
 11
205.581583141
 21
112.2411435055
 31
0.0
  0
ARC
  5
141
330
40
100
AcDbEntity
  8
0012877
  6
Continuous
 62
     7
100
AcDbCircle
 10
206.631583141
 20
125.1411435055
 30
0.0
 40
1.049999999999995
100
AcDbArc
 50
0.0
 51
180.0
  0
LINE
  5
142
330
40
100
AcDbEntity
  8
0012877
  6
Continuous
 62
     7
100
AcDbLine
 10
214.681583141
 20
132.2411435055
 30
0.0
 11
214.681583141
 21
145.1411435055
 31
0.0
  0
ARC
  5
143
330
40
100
AcDbEntity
  8
0012877
  6
Continuous
 62
     7
100
AcDbCircle
 10
213.631583141
 20
132.2411435055
 30
0.0
 40
1.049999999999995
100
AcDbArc
 50
180.0
 51
0.0
  0
LINE
  5
144
330
40
100
AcDbEntity
  8
0012877
  6
Continuous
 62
     7
100
AcDbLine
 10
212.581583141
 20
145.1411435055
 30
0.0
 11
212.581583141
 21
132.2411435055
 31
0.0
  0
ARC
  5
145
330
40
100
AcDbEntity
  8
0012877
  6
Continuous
 62
     7
100
AcDbCircle
 10
213.631583141
 20
145.1411435055
 30
0.0
 40
1.049999999999995
100
AcDbArc
 50
0.0
 51
180.0
  0
LINE
  5
146
330
40
100
AcDbEntity
  8
0012877
  6
Continuous
 62
     7
100
AcDbLine
 10
214.681583141
 20
112.2411435055
 30
0.0
 11
214.681583141
 21
125.1411435055
 31
0.0
  0
ARC
  5
147
330
40
100
AcDbEntity
  8
0012877
  6
Continuous
 62
     7
100
AcDbCircle
 10
213.631583141
 20
112.2411435055
 30
0.0
 40
1.049999999999995
100
AcDbArc
 50
180.0
 51
0.0
  0
LINE
  5
148
330
40
100
AcDbEntity
  8
0012877
  6
Continuous
 62
     7
100
AcDbLine
 10
212.581583141
 20
125.1411435055
 30
0.0
 11
212.581583141
 21
112.2411435055
 31
0.0
  0
ARC
  5
149
330
40
100
AcDbEntity
  8
0012877
  6
Continuous
 62
     7
100
AcDbCircle
 10
213.631583141
 20
125.1411435055
 30
0.0
 40
1.049999999999995
100
AcDbArc
 50
0.0
 51
180.0
  0
LINE
  5
14A
330
40
100
AcDbEntity
  8
0012877
  6
Continuous
 62
     7
100
AcDbLine
 10
221.681583141
 20
132.2411435055
 30
0.0
 11
221.681583141
 21
145.1411435055
 31
0.0
  0
ARC
  5
14B
330
40
100
AcDbEntity
  8
0012877
  6
Continuous
 62
     7
100
AcDbCircle
 10
220.631583141
 20
132.2411435055
 30
0.0
 40
1.049999999999995
100
AcDbArc
 50
180.0
 51
0.0
  0
LINE
  5
14C
330
40
100
AcDbEntity
  8
0012877
  6
Continuous
 62
     7
100
AcDbLine
 10
219.581583141
 20
145.1411435055
 30
0.0
 11
219.581583141
 21
132.2411435055
 31
0.0
  0
ARC
  5
14D
330
40
100
AcDbEntity
  8
0012877
  6
Continuous
 62
     7
100
AcDbCircle
 10
220.631583141
 20
145.1411435055
 30
0.0
 40
1.049999999999995
100
AcDbArc
 50
0.0
 51
180.0
  0
LINE
  5
14E
330
40
100
AcDbEntity
  8
0012877
  6
Continuous
 62
     7
100
AcDbLine
 10
221.681583141
 20
112.2411435055
 30
0.0
 11
221.681583141
 21
125.1411435055
 31
0.0
  0
ARC
  5
14F
330
40
100
AcDbEntity
  8
0012877
  6
Continuous
 62
     7
100
AcDbCircle
 10
220.631583141
 20
112.2411435055
 30
0.0
 40
1.049999999999995
100
AcDbArc
 50
180.0
 51
0.0
  0
LINE
  5
150
330
40
100
AcDbEntity
  8
0012877
  6
Continuous
 62
     7
100
AcDbLine
 10
219.581583141
 20
125.1411435055
 30
0.0
 11
219.581583141
 21
112.2411435055
 31
0.0
  0
ARC
  5
151
330
40
100
AcDbEntity
  8
0012877
  6
Continuous
 62
     7
100
AcDbCircle
 10
220.631583141
 20
125.1411435055
 30
0.0
 40
1.049999999999995
100
AcDbArc
 50
0.0
 51
180.0
  0
LINE
  5
152
330
40
100
AcDbEntity
  8
0012877
  6
Continuous
 62
     7
100
AcDbLine
 10
228.681583141
 20
132.2411435055
 30
0.0
 11
228.681583141
 21
145.1411435055
 31
0.0
  0
ARC
  5
153
330
40
100
AcDbEntity
  8
0012877
  6
Continuous
 62
     7
100
AcDbCircle
 10
227.631583141
 20
132.2411435055
 30
0.0
 40
1.049999999999995
100
AcDbArc
 50
180.0
 51
0.0
  0
LINE
  5
154
330
40
100
AcDbEntity
  8
0012877
  6
Continuous
 62
     7
100
AcDbLine
 10
226.581583141
 20
145.1411435055
 30
0.0
 11
226.581583141
 21
132.2411435055
 31
0.0
  0
ARC
  5
155
330
40
100
AcDbEntity
  8
0012877
  6
Continuous
 62
     7
100
AcDbCircle
 10
227.631583141
 20
145.1411435055
 30
0.0
 40
1.049999999999995
100
AcDbArc
 50
0.0
 51
180.0
  0
LINE
  5
156
330
40
100
AcDbEntity
  8
0012877
  6
Continuous
 62
     7
100
AcDbLine
 10
228.681583141
 20
112.2411435055
 30
0.0
 11
228.681583141
 21
125.1411435055
 31
0.0
  0
ARC
  5
157
330
40
100
AcDbEntity
  8
0012877
  6
Continuous
 62
     7
100
AcDbCircle
 10
227.631583141
 20
112.2411435055
 30
0.0
 40
1.049999999999995
100
AcDbArc
 50
180.0
 51
0.0
  0
LINE
  5
158
330
40
100
AcDbEntity
  8
0012877
  6
Continuous
 62
     7
100
AcDbLine
 10
226.581583141
 20
125.1411435055
 30
0.0
 11
226.581583141
 21
112.2411435055
 31
0.0
  0
ARC
  5
159
330
40
100
AcDbEntity
  8
0012877
  6
Continuous
 62
     7
100
AcDbCircle
 10
227.631583141
 20
125.1411435055
 30
0.0
 40
1.049999999999995
100
AcDbArc
 50
0.0
 51
180.0
  0
ENDBLK
  5
15B
330
40
100
AcDbEntity
  8
0
100
AcDbBlockEnd
  0
BLOCK
  5
162
330
15C
100
AcDbEntity
  8
0
100
AcDbBlockBegin
  2
SE1
 70
     0
 10
0.0
 20
0.0
 30
0.0
  3
SE1
  1

  0
LINE
  5
15E
330
15C
100
AcDbEntity
  8
0012877
  6
Continuous
 62
     7
100
AcDbLine
 10
234.881583141
 20
56.8760207135
 30
0.0
 11
66.381583141
 21
56.8760207135
 31
0.0
  0
LINE
  5
15F
330
15C
100
AcDbEntity
  8
0012877
  6
Continuous
 62
     7
100
AcDbLine
 10
234.881583141
 20
71.8760207135
 30
0.0
 11
66.381583141
 21
71.8760207135
 31
0.0
  0
LINE
  5
160
330
15C
100
AcDbEntity
  8
0012877
  6
Continuous
 62
     7
100
AcDbLine
 10
66.381583141
 20
56.8760207135
 30
0.0
 11
66.381583141
 21
71.8760207135
 31
0.0
  0
LINE
  5
161
330
15C
100
AcDbEntity
  8
0012877
  6
Continuous
 62
     7
100
AcDbLine
 10
234.881583141
 20
56.8760207135
 30
0.0
 11
234.881583141
 21
71.8760207135
 31
0.0
  0
ENDBLK
  5
163
330
15C
100
AcDbEntity
  8
0
100
AcDbBlockEnd
  0
BLOCK
  5
16D
330
164
100
AcDbEntity
  8
0
100
AcDbBlockBegin
  2
GDimGGroup
 70
     0
 10
0.0
 20
0.0
 30
0.0
  3
GDimGGroup
  1

  0
HATCH
  5
166
330
164
100
AcDbEntity
  8
Default
  6
Continuous
 62
     7
100
AcDbHatch
 10
0.0
 20
0.0
 30
0.0
210
0.0
220
0.0
230
1.0
  2
SOLID
 70
     1
 71
     0
 91
        1
 92
        1
 93
        3
 72
     1
 10
69.88158324900989
 20
162.8255945750806
 11
66.38158314097647
 21
162.2422612237417
 72
     1
 10
66.38158314097647
 20
162.2422612237417
 11
69.88158324900989
 21
161.6589278724028
 72
     1
 10
69.88158324900989
 20
161.6589278724028
 11
69.88158324900989
 21
162.8255945750806
 97
        0
 75
     0
 76
     1
 98
        0
  0
HATCH
  5
167
330
164
100
AcDbEntity
  8
Default
  6
Continuous
 62
     7
100
AcDbHatch
 10
0.0
 20
0.0
 30
0.0
210
0.0
220
0.0
230
1.0
  2
SOLID
 70
     1
 71
     0
 91
        1
 92
        1
 93
        3
 72
     1
 10
231.3815892318261
 20
162.8255945750806
 11
231.3815892318261
 21
161.6589278724028
 72
     1
 10
231.3815892318261
 20
161.6589278724028
 11
234.8815893398595
 21
162.2422612237417
 72
     1
 10
234.8815893398595
 20
162.2422612237417
 11
231.3815892318261
 21
162.8255945750806
 97
        0
 75
     0
 76
     1
 98
        0
  0
LINE
  5
168
330
164
100
AcDbEntity
  8
Default
  6
Continuous
 62
     7
100
AcDbLine
 10
66.381583141
 20
123.9411435055
 30
0.0
 11
66.381583141
 21
163.9922612778
 31
0.0
  0
LINE
  5
169
330
164
100
AcDbEntity
  8
Default
  6
Continuous
 62
     7
100
AcDbLine
 10
234.881583141
 20
123.9411435055
 30
0.0
 11
234.881583141
 21
163.9922612778
 31
0.0
  0
LINE
  5
16A
330
164
100
AcDbEntity
  8
Default
  6
Continuous
 62
     7
100
AcDbLine
 10
66.381583141
 20
162.2422612237
 30
0.0
 11
234.8815893399
 21
162.2422612237
 31
0.0
  0
TEXT
  5
16C
330
164
100
AcDbEntity
  8
Default
  6
Continuous
 62
     7
100
AcDbText
 10
147.6884044222
 20
163.1172612237
 30
0.0
 40
3.5
  1
337
  7
SEACAD_Solid_Edge_ISO
 11
147.6884044222
 21
166.6172612237
 31
0.0
100
AcDbText
 73
     3
  0
ENDBLK
  5
16E
330
164
100
AcDbEntity
  8
0
100
AcDbBlockEnd
  0
BLOCK
  5
177
330
16F
100
AcDbEntity
  8
0
100
AcDbBlockBegin
  2
GDimGGroup1
 70
     0
 10
0.0
 20
0.0
 30
0.0
  3
GDimGGroup1
  1

  0
HATCH
  5
171
330
16F
100
AcDbEntity
  8
Default
  6
Continuous
 62
     7
100
AcDbHatch
 10
0.0
 20
0.0
 30
0.0
210
0.0
220
0.0
230
1.0
  2
SOLID
 70
     1
 71
     0
 91
        1
 92
        1
 93
        3
 72
     1
 10
53.46513329551841
 20
145.4411433974885
 11
54.63179999819621
 21
145.4411433974885
 72
     1
 10
54.63179999819621
 20
145.4411433974885
 11
54.04846664685731
 21
148.9411435055219
 72
     1
 10
54.04846664685731
 20
148.9411435055219
 11
53.46513329551841
 21
145.4411433974885
 97
        0
 75
     0
 76
     1
 98
        0
  0
HATCH
  5
172
330
16F
100
AcDbEntity
  8
Default
  6
Continuous
 62
     7
100
AcDbHatch
 10
0.0
 20
0.0
 30
0.0
210
0.0
220
0.0
230
1.0
  2
SOLID
 70
     1
 71
     0
 91
        1
 92
        1
 93
        3
 72
     1
 10
53.46513329551841
 20
102.4411428684973
 11
54.04846664685731
 21
98.94114276046389
 72
     1
 10
54.04846664685731
 20
98.94114276046389
 11
54.63179999819621
 21
102.4411428684973
 72
     1
 10
54.63179999819621
 20
102.4411428684973
 11
53.46513329551841
 21
102.4411428684973
 97
        0
 75
     0
 76
     1
 98
        0
  0
LINE
  5
173
330
16F
100
AcDbEntity
  8
Default
  6
Continuous
 62
     7
100
AcDbLine
 10
66.381583141
 20
148.9411435055
 30
0.0
 11
52.2984665928
 21
148.9411435055
 31
0.0
  0
LINE
  5
174
330
16F
100
AcDbEntity
  8
Default
  6
Continuous
 62
     7
100
AcDbLine
 10
66.381583141
 20
98.9411435055
 30
0.0
 11
52.2984665928
 21
98.9411435055
 31
0.0
  0
LINE
  5
175
330
16F
100
AcDbEntity
  8
Default
  6
Continuous
 62
     7
100
AcDbLine
 10
54.0484666469
 20
148.9411435055
 30
0.0
 11
54.0484666469
 21
98.9411427605
 31
0.0
  0
TEXT
  5
176
330
16F
100
AcDbEntity
  8
Default
  6
Continuous
 62
     7
100
AcDbText
 10
53.1734666469
 20
121.1570522239
 30
0.0
 40
3.5
  1
100
 50
90.0
  7
SEACAD_Solid_Edge_ISO
 11
49.6734666469
 21
121.1570522239
 31
0.0
100
AcDbText
 73
     3
  0
ENDBLK
  5
178
330
16F
100
AcDbEntity
  8
0
100
AcDbBlockEnd
  0
BLOCK
  5
181
330
179
100
AcDbEntity
  8
0
100
AcDbBlockBegin
  2
GDimGGroup2
 70
     0
 10
0.0
 20
0.0
 30
0.0
  3
GDimGGroup2
  1

  0
HATCH
  5
17B
330
179
100
AcDbEntity
  8
Default
  6
Continuous
 62
     7
100
AcDbHatch
 10
0.0
 20
0.0
 30
0.0
210
0.0
220
0.0
230
1.0
  2
SOLID
 70
     1
 71
     0
 91
        1
 92
        1
 93
        3
 72
     1
 10
53.46513329551841
 20
60.37602082149289
 11
54.04846664685731
 21
56.87602071345947
 72
     1
 10
54.04846664685731
 20
56.87602071345947
 11
54.63179999819621
 21
60.37602082149289
 72
     1
 10
54.63179999819621
 20
60.37602082149289
 11
53.46513329551841
 21
60.37602082149289
 97
        0
 75
     0
 76
     1
 98
        0
  0
HATCH
  5
17C
330
179
100
AcDbEntity
  8
Default
  6
Continuous
 62
     7
100
AcDbHatch
 10
0.0
 20
0.0
 30
0.0
210
0.0
220
0.0
230
1.0
  2
SOLID
 70
     1
 71
     0
 91
        1
 92
        1
 93
        3
 72
     1
 10
53.46513329551841
 20
68.37602027014992
 11
54.63179999819621
 21
68.37602027014992
 72
     1
 10
54.63179999819621
 20
68.37602027014992
 11
54.04846664685731
 21
71.87602037818334
 72
     1
 10
54.04846664685731
 20
71.87602037818334
 11
53.46513329551841
 21
68.37602027014992
 97
        0
 75
     0
 76
     1
 98
        0
  0
LINE
  5
17D
330
179
100
AcDbEntity
  8
Default
  6
Continuous
 62
     7
100
AcDbLine
 10
66.381583141
 20
56.8760207135
 30
0.0
 11
52.2984665928
 21
56.8760207135
 31
0.0
  0
LINE
  5
17E
330
179
100
AcDbEntity
  8
Default
  6
Continuous
 62
     7
100
AcDbLine
 10
66.381583141
 20
71.8760207135
 30
0.0
 11
52.2984665928
 21
71.8760207135
 31
0.0
  0
LINE
  5
17F
330
179
100
AcDbEntity
  8
Default
  6
Continuous
 62
     7
100
AcDbLine
 10
54.0484666469
 20
56.8760207135
 30
0.0
 11
54.0484666469
 21
71.8760203782
 31
0.0
  0
TEXT
  5
180
330
179
100
AcDbEntity
  8
Default
  6
Continuous
 62
     7
100
AcDbText
 10
53.1734666469
 20
62.4271569095
 30
0.0
 40
3.5
  1
30
 50
90.0
  7
SEACAD_Solid_Edge_ISO
 11
49.6734666469
 21
62.4271569095
 31
0.0
100
AcDbText
 73
     3
  0
ENDBLK
  5
182
330
179
100
AcDbEntity
  8
0
100
AcDbBlockEnd
  0
BLOCK
  5
186
330
183
100
AcDbEntity
  8
0
100
AcDbBlockBegin
  2
SEANNOT_GROUP
 70
     0
 10
0.0
 20
0.0
 30
0.0
  3
SEANNOT_GROUP
  1

  0
TEXT
  5
185
330
183
100
AcDbEntity
  8
Default
  6
Continuous
 62
     7
100
AcDbText
 10
243.1483969886
 20
25.7525109624
 30
0.0
 40
3.5
  1
712240000
  7
SEACAD_Solid_Edge_ANSIB
 11
243.1483969886
 21
29.2525109624
 31
0.0
100
AcDbText
 73
     3
  0
ENDBLK
  5
187
330
183
100
AcDbEntity
  8
0
100
AcDbBlockEnd
  0
BLOCK
  5
18B
330
188
100
AcDbEntity
  8
0
100
AcDbBlockBegin
  2
SEANNOT_GROUP1
 70
     0
 10
0.0
 20
0.0
 30
0.0
  3
SEANNOT_GROUP1
  1

  0
TEXT
  5
18A
330
188
100
AcDbEntity
  8
Default
  6
Continuous
 62
     7
100
AcDbText
 10
243.1477357349
 20
20.0537100543
 30
0.0
 40
3.5
  1
14.10.2015
  7
SEACAD_Solid_Edge_ANSI
 11
243.1477357349
 21
23.5537100543
 31
0.0
100
AcDbText
 73
     3
  0
ENDBLK
  5
18C
330
188
100
AcDbEntity
  8
0
100
AcDbBlockEnd
  0
BLOCK
  5
18F
330
18D
100
AcDbEntity
  8
0
100
AcDbBlockBegin
  2
SEANNOT_GROUP2
 70
     0
 10
0.0
 20
0.0
 30
0.0
  3
SEANNOT_GROUP2
  1

  0
TEXT
  5
18E
330
18D
100
AcDbEntity
  8
Default
  6
Continuous
 62
     7
100
AcDbText
 10
243.1795282745
 20
31.5598894014
 30
0.0
 40
3.5
  1
DSR 40
  7
SEACAD_Solid_Edge_ANSIB
 11
243.1795282745
 21
35.0598894014
 31
0.0
100
AcDbText
 73
     3
  0
ENDBLK
  5
190
330
18D
100
AcDbEntity
  8
0
100
AcDbBlockEnd
  0
BLOCK
  5
193
330
191
100
AcDbEntity
  8
0
100
AcDbBlockBegin
  2
SEANNOT_GROUP3
 70
     0
 10
0.0
 20
0.0
 30
0.0
  3
SEANNOT_GROUP3
  1

  0
TEXT
  5
192
330
191
100
AcDbEntity
  8
Default
  6
Continuous
 62
     7
100
AcDbText
 10
243.2357917511
 20
14.1955389783
 30
0.0
 40
3.5
  1
1:2
  7
SEACAD_Solid_Edge_ANSI
 11
243.2357917511
 21
17.6955389783
 31
0.0
100
AcDbText
 73
     3
  0
ENDBLK
  5
194
330
191
100
AcDbEntity
  8
0
100
AcDbBlockEnd
  0
BLOCK
  5
1DB
330
195
100
AcDbEntity
  8
0
100
AcDbBlockBegin
  2
Block1
 70
     0
 10
0.0
 20
0.0
 30
0.0
  3
Block1
  1

  0
LINE
  5
196
330
195
100
AcDbEntity
  8
Default
  6
Continuous
 62
     7
100
AcDbLine
 10
42.3415792923
 20
6.5926277851
 30
0.0
 11
40.225655308
 21
3.525
 31
0.0
  0
LINE
  5
197
330
195
100
AcDbEntity
  8
Default
  6
Continuous
 62
     7
100
AcDbLine
 10
40.225655308
 20
3.525
 30
0.0
 11
41.2882372215
 21
1.9958060288
 31
0.0
  0
LINE
  5
198
330
195
100
AcDbEntity
  8
Default
  6
Continuous
 62
     7
100
AcDbLine
 10
41.2882372215
 20
1.9958060288
 30
0.0
 11
40.2556847969
 21
0.5266710354
 31
0.0
  0
LINE
  5
199
330
195
100
AcDbEntity
  8
Default
  6
Continuous
 62
     7
100
AcDbLine
 10
40.2556847969
 20
0.5266710354
 30
0.0
 11
39.2231323722
 21
2.1459534731
 31
0.0
  0
LINE
  5
19A
330
195
100
AcDbEntity
  8
Default
  6
Continuous
 62
     7
100
AcDbLine
 10
39.2231323722
 20
2.1459534731
 30
0.0
 11
37.7031782438
 21
0.0
 31
0.0
  0
LINE
  5
19B
330
195
100
AcDbEntity
  8
Default
  6
Continuous
 62
     7
100
AcDbLine
 10
37.7031782438
 20
0.0
 30
0.0
 11
35.6265235911
 21
0.0
 31
0.0
  0
LINE
  5
19C
330
195
100
AcDbEntity
  8
Default
  6
Continuous
 62
     7
100
AcDbLine
 10
35.6265235911
 20
0.0
 30
0.0
 11
38.209059633
 21
3.525
 31
0.0
  0
LINE
  5
19D
330
195
100
AcDbEntity
  8
Default
  6
Continuous
 62
     7
100
AcDbLine
 10
38.209059633
 20
3.525
 30
0.0
 11
36.1046854522
 21
6.5926277851
 31
0.0
  0
LINE
  5
19E
330
195
100
AcDbEntity
  8
Default
  6
Continuous
 62
     7
100
AcDbLine
 10
36.1046854522
 20
6.5926277851
 30
0.0
 11
38.209059633
 21
6.5926277851
 31
0.0
  0
LINE
  5
19F
330
195
100
AcDbEntity
  8
Default
  6
Continuous
 62
     7
100
AcDbLine
 10
38.209059633
 20
6.5926277851
 30
0.0
 11
39.2231323722
 21
4.8855668414
 31
0.0
  0
LINE
  5
1A0
330
195
100
AcDbEntity
  8
Default
  6
Continuous
 62
     7
100
AcDbLine
 10
39.2231323722
 20
4.8855668414
 30
0.0
 11
40.225655308
 21
6.5926277851
 31
0.0
  0
LINE
  5
1A1
330
195
100
AcDbEntity
  8
Default
  6
Continuous
 62
     7
100
AcDbLine
 10
40.225655308
 20
6.5926277851
 30
0.0
 11
42.3415792923
 21
6.5926277851
 31
0.0
  0
SPLINE
  5
1A2
330
195
100
AcDbEntity
  8
Default
  6
Continuous
 62
     7
100
AcDbSpline
210
0.0
220
0.0
230
1.0
 70
     8
 71
     3
 72
    13
 73
     9
 74
     0
 42
0.0000000012369638
 43
0.0000000001
 12
1.0
 22
0.0
 32
0.0
 13
1.0
 23
0.0
 33
0.0
 40
0.0
 40
0.0
 40
0.0
 40
0.0
 40
0.9091644120227717
 40
0.9091644120227717
 40
0.9091644120227717
 40
0.9554905618911577
 40
0.9554905618911577
 40
1.0
 40
1.0
 40
1.0
 40
1.0
 10
40.88399410222804
 20
0.427342726081259
 30
0.0
 10
42.29076015727392
 20
2.423148754914811
 30
0.0
 10
43.69752621231979
 20
4.418954783748362
 30
0.0
 10
45.10429226736566
 20
6.414760812581914
 30
0.0
 10
45.18660375034128
 20
6.531537694833034
 30
0.0
 10
45.28446920052424
 20
6.592627785058978
 30
0.0
 10
45.51546526867628
 20
6.592627785058978
 30
0.0
 10
45.61941349934469
 20
6.53256880733945
 30
0.0
 10
45.71181192660551
 20
6.414760812581914
 30
0.0
  0
SPLINE
  5
1A3
330
195
100
AcDbEntity
  8
Default
  6
Continuous
 62
     7
100
AcDbSpline
210
0.0
220
0.0
230
1.0
 70
     8
 71
     3
 72
    16
 73
    12
 74
     0
 42
0.0000000006014133
 43
0.0000000001
 12
1.0
 22
0.0
 32
0.0
 13
1.0
 23
0.0
 33
0.0
 40
0.0
 40
0.0
 40
0.0
 40
0.0
 40
0.4418652593848311
 40
0.4418652593848311
 40
0.4418652593848311
 40
0.455090010411123
 40
0.455090010411123
 40
0.4811129075918901
 40
0.4811129075918901
 40
0.4811129075918901
 40
1.0
 40
1.0
 40
1.0
 40
1.0
 10
45.71181192660551
 20
6.414760812581914
 30
0.0
 10
47.11857798165137
 20
4.418954783748362
 30
0.0
 10
48.52534403669725
 20
2.42314875491481
 30
0.0
 10
49.93211009174313
 20
0.427342726081259
 30
0.0
 10
49.98455330475264
 20
0.352940532254955
 30
0.0
 10
50.01295871559633
 20
0.281815203145479
 30
0.0
 10
50.01295871559633
 20
0.0692988204456104
 30
0.0
 10
49.91363040629096
 20
0.0000000000000009
 30
0.0
 10
49.71497378768021
 20
0.0000000000000009
 30
0.0
 10
46.84754259501965
 20
0.0000000000000009
 30
0.0
 10
43.98011140235911
 20
0.0000000000000009
 30
0.0
 10
41.11268020969855
 20
0.0000000000000009
 30
0.0
  0
SPLINE
  5
1A4
330
195
100
AcDbEntity
  8
Default
  6
Continuous
 62
     7
100
AcDbSpline
210
0.0
220
0.0
230
1.0
 70
     8
 71
     3
 72
    11
 73
     7
 74
     0
 42
0.0000000141737466
 43
0.0000000001
 12
1.0
 22
0.0
 32
0.0
 13
1.0
 23
0.0
 33
0.0
 40
0.0
 40
0.0
 40
0.0
 40
0.0
 40
0.6560933575639865
 40
0.6560933575639865
 40
0.6560933575639865
 40
1.0
 40
1.0
 40
1.0
 40
1.0
 10
41.11268020969855
 20
0.0000000000000009
 30
0.0
 10
40.90709370904325
 20
0.0000000000000009
 30
0.0
 10
40.80545543905635
 20
0.0739187418086509
 30
0.0
 10
40.80314547837483
 20
0.2194462647444313
 30
0.0
 10
40.80230295367286
 20
0.2725253209688669
 30
0.0
 10
40.83086500655307
 20
0.3418741808650076
 30
0.0
 10
40.88399410222804
 20
0.427342726081259
 30
0.0
  0
LINE
  5
1A5
330
195
100
AcDbEntity
  8
Default
  6
Continuous
 62
     7
100
AcDbLine
 10
35.1853211009
 20
6.6087975098
 30
0.0
 11
35.1853211009
 21
0.0
 31
0.0
  0
SPLINE
  5
1A6
330
195
100
AcDbEntity
  8
Default
  6
Continuous
 62
     7
100
AcDbSpline
210
0.0
220
0.0
230
1.0
 70
     8
 71
     3
 72
    14
 73
    10
 74
     0
 42
0.0000000052950889
 43
0.0000000001
 12
1.0
 22
0.0
 32
0.0
 13
1.0
 23
0.0
 33
0.0
 40
0.0
 40
0.0
 40
0.0
 40
0.0
 40
0.1210177131110554
 40
0.1210177131110554
 40
0.1210177131110554
 40
0.2419901306838391
 40
0.2419901306838391
 40
0.2419901306838391
 40
1.0
 40
1.0
 40
1.0
 40
1.0
 10
33.47364023591088
 20
6.320052424639582
 30
0.0
 10
33.47364023591088
 20
6.400901048492791
 30
0.0
 10
33.50135976408912
 20
6.467889908256881
 30
0.0
 10
33.55910878112713
 20
6.523328964613368
 30
0.0
 10
33.61680971405436
 20
6.578721860223512
 30
0.0
 10
33.68153669724771
 20
6.608797509829621
 30
0.0
 10
33.76238532110091
 20
6.608797509829621
 30
0.0
 10
34.23669724770642
 20
6.608797509829621
 30
0.0
 10
34.71100917431193
 20
6.608797509829621
 30
0.0
 10
35.18532110091743
 20
6.608797509829621
 30
0.0
  0
LINE
  5
1A7
330
195
100
AcDbEntity
  8
Default
  6
Continuous
 62
     7
100
AcDbLine
 10
33.4736402359
 20
0.0
 30
0.0
 11
33.4736402359
 21
6.3200524246
 31
0.0
  0
LINE
  5
1A8
330
195
100
AcDbEntity
  8
Default
  6
Continuous
 62
     7
100
AcDbLine
 10
35.1853211009
 20
0.0
 30
0.0
 11
33.4736402359
 21
0.0
 31
0.0
  0
SPLINE
  5
1A9
330
195
100
AcDbEntity
  8
Default
  6
Continuous
 62
     7
100
AcDbSpline
210
0.0
220
0.0
230
1.0
 70
     8
 71
     3
 72
    16
 73
    12
 74
     0
 42
0.0000000009758823
 43
0.0000000001
 12
1.0
 22
0.0
 32
0.0
 13
1.0
 23
0.0
 33
0.0
 40
0.0
 40
0.0
 40
0.0
 40
0.0
 40
0.6159054655977501
 40
0.6159054655977501
 40
0.6159054655977501
 40
0.6376683166669079
 40
0.6376683166669079
 40
0.6603379531972834
 40
0.6603379531972834
 40
0.6603379531972834
 40
1.0
 40
1.0
 40
1.0
 40
1.0
 10
28.82137942332896
 20
0.0
 30
0.0
 10
28.82137942332896
 20
2.101294233289646
 30
0.0
 10
28.82137942332896
 20
4.202588466579293
 30
0.0
 10
28.82137942332896
 20
6.303882699868939
 30
0.0
 10
28.82137942332896
 20
6.38473132372215
 30
0.0
 10
28.84909895150721
 20
6.451720183486239
 30
0.0
 10
28.96228702490171
 20
6.564908256880734
 30
0.0
 10
29.02927588466579
 20
6.592627785058978
 30
0.0
 10
29.110124508519
 20
6.592627785058978
 30
0.0
 10
30.26895478374836
 20
6.592627785058978
 30
0.0
 10
31.42778505897771
 20
6.592627785058978
 30
0.0
 10
32.58661533420707
 20
6.592627785058978
 30
0.0
  0
LINE
  5
1AA
330
195
100
AcDbEntity
  8
Default
  6
Continuous
 62
     7
100
AcDbLine
 10
30.5399901704
 20
0.0
 30
0.0
 11
28.8213794233
 21
0.0
 31
0.0
  0
LINE
  5
1AB
330
195
100
AcDbEntity
  8
Default
  6
Continuous
 62
     7
100
AcDbLine
 10
30.5399901704
 20
2.5848460026
 30
0.0
 11
30.5399901704
 21
0.0
 31
0.0
  0
LINE
  5
1AC
330
195
100
AcDbEntity
  8
Default
  6
Continuous
 62
     7
100
AcDbLine
 10
32.4872870249
 20
2.5848460026
 30
0.0
 11
30.5399901704
 21
2.5848460026
 31
0.0
  0
LINE
  5
1AD
330
195
100
AcDbEntity
  8
Default
  6
Continuous
 62
     7
100
AcDbLine
 10
32.4872870249
 20
4.0424311927
 30
0.0
 11
32.4872870249
 21
2.5848460026
 31
0.0
  0
LINE
  5
1AE
330
195
100
AcDbEntity
  8
Default
  6
Continuous
 62
     7
100
AcDbLine
 10
30.5399901704
 20
4.0424311927
 30
0.0
 11
32.4872870249
 21
4.0424311927
 31
0.0
  0
LINE
  5
1AF
330
195
100
AcDbEntity
  8
Default
  6
Continuous
 62
     7
100
AcDbLine
 10
30.5399901704
 20
5.1419724771
 30
0.0
 11
30.5399901704
 21
4.0424311927
 31
0.0
  0
LINE
  5
1B0
330
195
100
AcDbEntity
  8
Default
  6
Continuous
 62
     7
100
AcDbLine
 10
32.5866153342
 20
5.1419724771
 30
0.0
 11
30.5399901704
 21
5.1419724771
 31
0.0
  0
LINE
  5
1B1
330
195
100
AcDbEntity
  8
Default
  6
Continuous
 62
     7
100
AcDbLine
 10
32.5866153342
 20
6.5926277851
 30
0.0
 11
32.5866153342
 21
5.1419724771
 31
0.0
  0
LINE
  5
1B2
330
195
100
AcDbEntity
  8
Default
  6
Continuous
 62
     7
100
AcDbLine
 10
28.0706422018
 20
4.0424311927
 30
0.0
 11
28.0706422018
 21
2.5848460026
 31
0.0
  0
LINE
  5
1B3
330
195
100
AcDbEntity
  8
Default
  6
Continuous
 62
     7
100
AcDbLine
 10
25.9362385321
 20
4.0424311927
 30
0.0
 11
28.0706422018
 21
4.0424311927
 31
0.0
  0
LINE
  5
1B4
330
195
100
AcDbEntity
  8
Default
  6
Continuous
 62
     7
100
AcDbLine
 10
25.9362385321
 20
2.5848460026
 30
0.0
 11
25.9362385321
 21
4.0424311927
 31
0.0
  0
LINE
  5
1B5
330
195
100
AcDbEntity
  8
Default
  6
Continuous
 62
     7
100
AcDbLine
 10
28.0706422018
 20
2.5848460026
 30
0.0
 11
25.9362385321
 21
2.5848460026
 31
0.0
  0
SPLINE
  5
1B6
330
195
100
AcDbEntity
  8
Default
  6
Continuous
 62
     7
100
AcDbSpline
210
0.0
220
0.0
230
1.0
 70
    11
 71
     3
 72
    47
 73
    43
 74
     0
 42
0.0000000008494054
 43
0.0000000001
 12
1.0
 22
0.0
 32
0.0
 13
1.0
 23
0.0
 33
0.0
 40
0.0
 40
0.0
 40
0.0
 40
0.0
 40
0.0637917384076936
 40
0.0637917384076936
 40
0.0637917384076936
 40
0.1265834997779105
 40
0.1265834997779105
 40
0.1893752611481286
 40
0.1893752611481286
 40
0.1893752611481286
 40
0.2604081010642026
 40
0.2604081010642026
 40
0.3159741129340349
 40
0.3159741129340349
 40
0.3159741129340349
 40
0.3751091105868484
 40
0.3751091105868484
 40
0.3751091105868484
 40
0.435995169879425
 40
0.435995169879425
 40
0.435995169879425
 40
0.4997689343159713
 40
0.4997689343159713
 40
0.5635426987525196
 40
0.5635426987525196
 40
0.5635426987525196
 40
0.624232315369434
 40
0.624232315369434
 40
0.624232315369434
 40
0.6835869381889372
 40
0.6835869381889372
 40
0.6835869381889372
 40
0.7357943705008892
 40
0.7357943705008892
 40
0.8025337685079206
 40
0.8025337685079206
 40
0.8692731665149518
 40
0.8692731665149518
 40
0.9360125645219831
 40
0.9360125645219831
 40
0.9360125645219831
 40
1.0
 40
1.0
 40
1.0
 40
1.0
 10
21.44336500655308
 20
1.450655307994758
 30
0.0
 10
21.70208060288335
 20
1.450655307994758
 30
0.0
 10
21.94462647444299
 20
1.501474442988205
 30
0.0
 10
22.16869266055046
 20
1.600802752293579
 30
0.0
 10
22.39468942225328
 20
1.700986883770089
 30
0.0
 10
22.5937254259502
 20
1.836418741808651
 30
0.0
 10
22.93097968545217
 20
2.187532765399738
 30
0.0
 10
23.06495740498034
 20
2.395429226736567
 30
0.0
 10
23.15966579292267
 20
2.63335517693316
 30
0.0
 10
23.25469013236262
 20
2.87207485894082
 30
0.0
 10
23.30519331585845
 20
3.132306684141548
 30
0.0
 10
23.30519331585845
 20
3.642807994757537
 30
0.0
 10
23.25668414154652
 20
3.862254259501967
 30
0.0
 10
23.15966579292267
 20
4.074770642201835
 30
0.0
 10
23.06391850987524
 20
4.284502786020031
 30
0.0
 10
22.93097968545217
 20
4.472083879423329
 30
0.0
 10
22.76235255570118
 20
4.636091087811272
 30
0.0
 10
22.59487996078263
 20
4.798975392458079
 30
0.0
 10
22.39506880733945
 20
4.927146133682831
 30
0.0
 10
22.16869266055046
 20
5.021854521625164
 30
0.0
 10
21.94345992894685
 20
5.116084541989939
 30
0.0
 10
21.70208060288335
 20
5.167382044560944
 30
0.0
 10
21.18464941022281
 20
5.167382044560944
 30
0.0
 10
20.94210353866317
 20
5.118872870249017
 30
0.0
 10
20.71572739187418
 20
5.021854521625164
 30
0.0
 10
20.49213912866634
 20
4.926030980250372
 30
0.0
 10
20.29300458715597
 20
4.797788335517694
 30
0.0
 10
20.12437745740498
 20
4.636091087811272
 30
0.0
 10
19.95459636352431
 20
4.473287299158574
 30
0.0
 10
19.82177260812581
 20
4.284977064220183
 30
0.0
 10
19.72244429882045
 20
4.074770642201835
 30
0.0
 10
19.62222370164274
 20
3.86267589003505
 30
0.0
 10
19.57229685452162
 20
3.642807994757537
 30
0.0
 10
19.57229685452162
 20
3.132306684141548
 30
0.0
 10
19.62311598951508
 20
2.871281127129752
 30
0.0
 10
19.82177260812581
 20
2.395429226736567
 30
0.0
 10
19.95575032765399
 20
2.187532765399738
 30
0.0
 10
20.29300458715597
 20
1.836418741808651
 30
0.0
 10
20.49166120576671
 20
1.700131061598952
 30
0.0
 10
20.71572739187418
 20
1.600802752293579
 30
0.0
 10
20.941724153577
 20
1.500618620817073
 30
0.0
 10
21.18464941022281
 20
1.450655307994758
 30
0.0
 10
21.44336500655308
 20
1.450655307994758
 30
0.0
  0
SPLINE
  5
1B7
330
195
100
AcDbEntity
  8
Default
  6
Continuous
 62
     7
100
AcDbSpline
210
0.0
220
0.0
230
1.0
 70
    11
 71
     3
 72
    49
 73
    45
 74
     0
 42
0.0000000004385322
 43
0.0000000001
 12
1.0
 22
0.0
 32
0.0
 13
1.0
 23
0.0
 33
0.0
 40
0.0
 40
0.0
 40
0.0
 40
0.0
 40
0.0617996483207596
 40
0.0617996483207596
 40
0.0617996483207596
 40
0.1220737652654132
 40
0.1220737652654132
 40
0.1220737652654132
 40
0.1820249318660078
 40
0.1820249318660078
 40
0.1820249318660078
 40
0.2438982680995642
 40
0.2438982680995642
 40
0.3109516975991858
 40
0.3109516975991858
 40
0.3109516975991858
 40
0.3722543214771952
 40
0.3722543214771952
 40
0.3722543214771952
 40
0.4335172266527087
 40
0.4335172266527087
 40
0.4335172266527087
 40
0.4994898970728853
 40
0.4994898970728853
 40
0.5657506577569065
 40
0.5657506577569065
 40
0.5657506577569065
 40
0.626961718898901
 40
0.626961718898901
 40
0.6886100019061948
 40
0.6886100019061948
 40
0.6886100019061948
 40
0.7556907268882871
 40
0.7556907268882871
 40
0.8175892499404324
 40
0.8175892499404324
 40
0.8175892499404324
 40
0.8774725210786118
 40
0.8774725210786118
 40
0.8774725210786118
 40
0.9379094648157675
 40
0.9379094648157675
 40
0.9379094648157675
 40
1.0
 40
1.0
 40
1.0
 40
1.0
 10
21.44336500655308
 20
6.83055373525557
 30
0.0
 10
21.91919464291449
 20
6.832852429151036
 30
0.0
 10
22.37658912188729
 20
6.745085190039319
 30
0.0
 10
22.81317169069462
 20
6.581077981651377
 30
0.0
 10
23.25051470703607
 20
6.416785102496653
 30
0.0
 10
23.63782765399738
 20
6.181454783748363
 30
0.0
 10
23.97508191349934
 20
5.878849934469201
 30
0.0
 10
24.31246764930903
 20
5.576127116722139
 30
0.0
 10
24.58491153342071
 20
5.218201179554391
 30
0.0
 10
24.78587811271298
 20
4.800098296199214
 30
0.0
 10
24.9863762849025
 20
4.38296991497732
 30
0.0
 10
25.08848296199213
 20
3.926933158584535
 30
0.0
 10
25.08848296199213
 20
2.892070773263434
 30
0.0
 10
24.99839449541284
 20
2.402359108781128
 30
0.0
 10
24.81590760157274
 20
1.958846657929228
 30
0.0
 10
24.63260786737497
 20
1.513358696334639
 30
0.0
 10
24.38163499344692
 20
1.129570773263435
 30
0.0
 10
24.06055045871559
 20
0.8038663171690699
 30
0.0
 10
23.7406207864759
 20
0.4793333402928437
 30
0.0
 10
23.3560124508519
 20
0.2286861074705122
 30
0.0
 10
22.90788007863696
 20
0.0485091743119273
 30
0.0
 10
22.46253572118054
 20
-0.1305468044592142
 30
0.0
 10
21.97234600262123
 20
-0.2194462647444295
 30
0.0
 10
20.91207404980341
 20
-0.2194462647444295
 30
0.0
 10
20.42467234600262
 20
-0.1293577981651364
 30
0.0
 10
19.9788499344692
 20
0.0485091743119273
 30
0.0
 10
19.53023971314575
 20
0.2274883817829441
 30
0.0
 10
19.14495412844037
 20
0.4804718217562263
 30
0.0
 10
18.49585517693316
 20
1.129570773263435
 30
0.0
 10
18.24406946264745
 20
1.513024246395807
 30
0.0
 10
18.06158256880734
 20
1.958846657929228
 30
0.0
 10
17.87990551563201
 20
2.402690597965156
 30
0.0
 10
17.78669724770642
 20
2.892070773263434
 30
0.0
 10
17.78669724770642
 20
3.926933158584535
 30
0.0
 10
17.88833551769332
 20
4.384305373525557
 30
0.0
 10
18.0916120576671
 20
4.800098296199214
 30
0.0
 10
18.2953544565906
 20
5.21684411217912
 30
0.0
 10
18.56284403669725
 20
5.57855504587156
 30
0.0
 10
18.90009829619921
 20
5.878849934469201
 30
0.0
 10
19.23849979910015
 20
6.18016634116182
 30
0.0
 10
19.62773591087812
 20
6.414760812581914
 30
0.0
 10
20.06662844036697
 20
6.581077981651377
 30
0.0
 10
20.50677543450266
 20
6.747870526797538
 30
0.0
 10
20.96520314547837
 20
6.82824377457405
 30
0.0
 10
21.44336500655308
 20
6.83055373525557
 30
0.0
  0
LINE
  5
1B8
330
195
100
AcDbEntity
  8
Default
  6
Continuous
 62
     7
100
AcDbLine
 10
15.3335190039
 20
2.3145806029
 30
0.0
 11
13.8343545216
 21
2.3145806029
 31
0.0
  0
SPLINE
  5
1B9
330
195
100
AcDbEntity
  8
Default
  6
Continuous
 62
     7
100
AcDbSpline
210
0.0
220
0.0
230
1.0
 70
     8
 71
     3
 72
    43
 73
    39
 74
     0
 42
0.0000000009932047
 43
0.0000000001
 12
1.0
 22
0.0
 32
0.0
 13
1.0
 23
0.0
 33
0.0
 40
0.0
 40
0.0
 40
0.0
 40
0.0
 40
0.0949373847537602
 40
0.0949373847537602
 40
0.0949373847537602
 40
0.1911787086491429
 40
0.1911787086491429
 40
0.2677918678027036
 40
0.2677918678027036
 40
0.2677918678027036
 40
0.3406026976746725
 40
0.3406026976746725
 40
0.3406026976746725
 40
0.4151543081273698
 40
0.4151543081273698
 40
0.4151543081273698
 40
0.4895478942304584
 40
0.4895478942304584
 40
0.5659890102262922
 40
0.5659890102262922
 40
0.6424301262221261
 40
0.6424301262221261
 40
0.6424301262221261
 40
0.714798401889747
 40
0.714798401889747
 40
0.714798401889747
 40
0.7953127750919691
 40
0.7953127750919691
 40
0.8472575319966263
 40
0.8472575319966263
 40
0.8472575319966263
 40
0.898191982468852
 40
0.898191982468852
 40
0.898191982468852
 40
0.9471592991231073
 40
0.9471592991231073
 40
0.9471592991231073
 40
1.0
 40
1.0
 40
1.0
 40
1.0
 10
15.25498034076016
 20
4.25956749672346
 30
0.0
 10
15.1348623853211
 20
4.578342070773264
 30
0.0
 10
14.95468545216252
 20
4.832437745740499
 30
0.0
 10
14.7144495412844
 20
5.024164482306685
 30
0.0
 10
14.47167626156505
 20
5.217916234390401
 30
0.0
 10
14.17622870249017
 20
5.312909567496725
 30
0.0
 10
13.54560943643512
 20
5.312909567496725
 30
0.0
 10
13.30075360419397
 20
5.252850589777196
 30
0.0
 10
13.08361730013106
 20
5.13042267365662
 30
0.0
 10
12.86823374940279
 20
5.008983012075785
 30
0.0
 10
12.69092398427261
 20
4.84629750982962
 30
0.0
 10
12.54770642201835
 20
4.647640891218874
 30
0.0
 10
12.40527884987617
 20
4.450080065344236
 30
0.0
 10
12.29823066841416
 20
4.227228047182176
 30
0.0
 10
12.22662188728703
 20
3.980062254259503
 30
0.0
 10
12.15421681189757
 20
3.730147961786198
 30
0.0
 10
12.11574377457405
 20
3.481110747051115
 30
0.0
 10
12.11574377457405
 20
2.970609436435126
 30
0.0
 10
12.15501310615989
 20
2.721133682830931
 30
0.0
 10
12.30747051114023
 20
2.231422018348625
 30
0.0
 10
12.41834862385321
 20
2.009665792922674
 30
0.0
 10
12.56387614678899
 20
1.815629095674968
 30
0.0
 10
12.7105124508519
 20
1.620114023591089
 30
0.0
 10
12.88958060288335
 20
1.46220511140236
 30
0.0
 10
13.10440694626475
 20
1.344397116644824
 30
0.0
 10
13.32020716906946
 20
1.226055058977723
 30
0.0
 10
13.56870904325033
 20
1.16653014416776
 30
0.0
 10
14.03994102228047
 20
1.16653014416776
 30
0.0
 10
14.21780799475754
 20
1.189629750982963
 30
0.0
 10
14.39105504587156
 20
1.240448885976409
 30
0.0
 10
14.5615512434976
 20
1.290461103946714
 30
0.0
 10
14.7144495412844
 20
1.362876802096987
 30
0.0
 10
14.84842726081258
 20
1.457585190039319
 30
0.0
 10
14.98086470130555
 20
1.551204760042966
 30
0.0
 10
15.08866317169069
 20
1.672411533420708
 30
0.0
 10
15.17644167758847
 20
1.815629095674968
 30
0.0
 10
15.26256022686942
 20
1.956138307659666
 30
0.0
 10
15.31503931847969
 20
2.12285386631717
 30
0.0
 10
15.33351900393184
 20
2.314580602883356
 30
0.0
  0
LINE
  5
1BA
330
195
100
AcDbEntity
  8
Default
  6
Continuous
 62
     7
100
AcDbLine
 10
16.8835026212
 20
4.9456258191
 30
0.0
 11
15.2549803408
 21
4.2595674967
 31
0.0
  0
SPLINE
  5
1BB
330
195
100
AcDbEntity
  8
Default
  6
Continuous
 62
     7
100
AcDbSpline
210
0.0
220
0.0
230
1.0
 70
     8
 71
     3
 72
    51
 73
    47
 74
     0
 42
0.0000000004766382
 43
0.0000000001
 12
1.0
 22
0.0
 32
0.0
 13
1.0
 23
0.0
 33
0.0
 40
0.0
 40
0.0
 40
0.0
 40
0.0
 40
0.0095402040290222
 40
0.0095402040290222
 40
0.0095402040290222
 40
0.0400756007423482
 40
0.0400756007423482
 40
0.0400756007423482
 40
0.0693620114069116
 40
0.0693620114069116
 40
0.0986484220714753
 40
0.0986484220714753
 40
0.0986484220714753
 40
0.1302632519246672
 40
0.1302632519246672
 40
0.1302632519246672
 40
0.2055179711079718
 40
0.2055179711079718
 40
0.2055179711079718
 40
0.281182745691462
 40
0.281182745691462
 40
0.3511962093102096
 40
0.3511962093102096
 40
0.3511962093102096
 40
0.4149417185613706
 40
0.4149417185613706
 40
0.4149417185613706
 40
0.4786592191897758
 40
0.4786592191897758
 40
0.4786592191897758
 40
0.5478830793697405
 40
0.5478830793697405
 40
0.6199007276287178
 40
0.6199007276287178
 40
0.6199007276287178
 40
0.6846819262147057
 40
0.6846819262147057
 40
0.6846819262147057
 40
0.7494892886116509
 40
0.7494892886116509
 40
0.7494892886116509
 40
0.8193637744922013
 40
0.8193637744922013
 40
0.9096818872461009
 40
0.9096818872461009
 40
1.0
 40
1.0
 40
1.0
 40
1.0
 10
17.14221821756225
 20
3.658977719528179
 30
0.0
 10
17.14221821756225
 20
3.59275884665793
 30
0.0
 10
17.14221821756225
 20
3.526539973787681
 30
0.0
 10
17.14221821756225
 20
3.460321100917432
 30
0.0
 10
17.14221821756225
 20
3.243184796854522
 30
0.0
 10
17.12835845347313
 20
3.030668414154654
 30
0.0
 10
17.11680865006553
 20
2.825081913499345
 30
0.0
 10
17.10526611434193
 20
2.619624777619178
 30
0.0
 10
17.08446920052425
 20
2.41852883355177
 30
0.0
 10
17.01055045871559
 20
2.021215596330276
 30
0.0
 10
16.95742136304062
 20
1.824868938401049
 30
0.0
 10
16.88350262123198
 20
1.633142201834863
 30
0.0
 10
16.80988280520848
 20
1.442190804023907
 30
0.0
 10
16.70563564875491
 20
1.249688728702491
 30
0.0
 10
16.5670380078637
 20
1.057961992136305
 30
0.0
 10
16.23809819736261
 20
0.6029285876097794
 30
0.0
 10
15.84633027522936
 20
0.2679554390563577
 30
0.0
 10
15.37971821756225
 20
0.06467889908257
 30
0.0
 10
14.91226036066398
 20
-0.1389661078830131
 30
0.0
 10
14.40029488859764
 20
-0.2425458715596323
 30
0.0
 10
13.32847313237222
 20
-0.2425458715596323
 30
0.0
 10
12.85262123197903
 20
-0.1593872870249009
 30
0.0
 10
12.41834862385321
 20
0.0092398427260818
 30
0.0
 10
11.9860833240235
 20
0.1770875389365569
 30
0.0
 10
11.61448230668415
 20
0.4157929226736576
 30
0.0
 10
11.30725753604194
 20
0.7183977719528185
 30
0.0
 10
10.99887791762487
 20
1.022140102874894
 30
0.0
 10
10.76210681520315
 20
1.39059633027523
 30
0.0
 10
10.58885976408912
 20
1.822558977719529
 30
0.0
 10
10.41673087643255
 20
2.251733670943243
 30
0.0
 10
10.33245412844037
 20
2.725753604193972
 30
0.0
 10
10.33245412844037
 20
3.776785714285715
 30
0.0
 10
10.41792267365662
 20
4.264187418086501
 30
0.0
 10
10.58885976408912
 20
4.700769986893841
 30
0.0
 10
10.76010389980871
 20
5.138136765961434
 30
0.0
 10
11.00465268676278
 20
5.511566186107471
 30
0.0
 10
11.31880733944954
 20
5.823410878112714
 30
0.0
 10
11.6318070432484
 20
6.134109113501288
 30
0.0
 10
12.00948558322411
 20
6.373181520314549
 30
0.0
 10
12.44837811271297
 20
6.544118610747052
 30
0.0
 10
12.88849518360602
 20
6.715532627831713
 30
0.0
 10
13.37467234600262
 20
6.795904325032767
 30
0.0
 10
14.58740170380079
 20
6.795904325032767
 30
0.0
 10
15.18106159895151
 20
6.643446920052426
 30
0.0
 10
16.20206422018348
 20
6.033617300131063
 30
0.0
 10
16.59937745740498
 20
5.56931520314548
 30
0.0
 10
16.88350262123198
 20
4.945625819134994
 30
0.0
  0
LINE
  5
1BC
330
195
100
AcDbEntity
  8
Default
  6
Continuous
 62
     7
100
AcDbLine
 10
13.8343545216
 20
3.6589777195
 30
0.0
 11
17.1422182176
 21
3.6589777195
 31
0.0
  0
LINE
  5
1BD
330
195
100
AcDbEntity
  8
Default
  6
Continuous
 62
     7
100
AcDbLine
 10
13.8343545216
 20
2.3145806029
 30
0.0
 11
13.8343545216
 21
3.6589777195
 31
0.0
  0
SPLINE
  5
1BE
330
195
100
AcDbEntity
  8
Default
  6
Continuous
 62
     7
100
AcDbSpline
210
0.0
220
0.0
230
1.0
 70
     8
 71
     3
 72
    16
 73
    12
 74
     0
 42
0.000000000976763
 43
0.0000000001
 12
1.0
 22
0.0
 32
0.0
 13
1.0
 23
0.0
 33
0.0
 40
0.0
 40
0.0
 40
0.0
 40
0.0
 40
0.6164577788718584
 40
0.6164577788718584
 40
0.6164577788718584
 40
0.6381328433885463
 40
0.6381328433885463
 40
0.6607110355934293
 40
0.6607110355934293
 40
0.6607110355934293
 40
1.0
 40
1.0
 40
1.0
 40
1.0
 10
6.022067496723459
 20
0.0000000000000018
 30
0.0
 10
6.022067496723459
 20
2.101294233289647
 30
0.0
 10
6.022067496723459
 20
4.202588466579293
 30
0.0
 10
6.022067496723459
 20
6.303882699868939
 30
0.0
 10
6.022067496723459
 20
6.38473132372215
 30
0.0
 10
6.049787024901704
 20
6.451720183486239
 30
0.0
 10
6.162975098296197
 20
6.564908256880734
 30
0.0
 10
6.229963958060289
 20
6.592627785058978
 30
0.0
 10
6.30850262123198
 20
6.592627785058978
 30
0.0
 10
7.465022935779817
 20
6.592627785058978
 30
0.0
 10
8.621543250327658
 20
6.592627785058978
 30
0.0
 10
9.778063564875495
 20
6.592627785058978
 30
0.0
  0
LINE
  5
1BF
330
195
100
AcDbEntity
  8
Default
  6
Continuous
 62
     7
100
AcDbLine
 10
9.7780635649
 20
0.0
 30
0.0
 11
6.0220674967
 21
0.0
 31
0.0
  0
LINE
  5
1C0
330
195
100
AcDbEntity
  8
Default
  6
Continuous
 62
     7
100
AcDbLine
 10
9.7780635649
 20
1.450655308
 30
0.0
 11
9.7780635649
 21
0.0
 31
0.0
  0
LINE
  5
1C1
330
195
100
AcDbEntity
  8
Default
  6
Continuous
 62
     7
100
AcDbLine
 10
7.731438401
 20
1.450655308
 30
0.0
 11
9.7780635649
 21
1.450655308
 31
0.0
  0
LINE
  5
1C2
330
195
100
AcDbEntity
  8
Default
  6
Continuous
 62
     7
100
AcDbLine
 10
7.731438401
 20
2.5848460026
 30
0.0
 11
7.731438401
 21
1.450655308
 31
0.0
  0
LINE
  5
1C3
330
195
100
AcDbEntity
  8
Default
  6
Continuous
 62
     7
100
AcDbLine
 10
9.6787352556
 20
2.5848460026
 30
0.0
 11
7.731438401
 21
2.5848460026
 31
0.0
  0
LINE
  5
1C4
330
195
100
AcDbEntity
  8
Default
  6
Continuous
 62
     7
100
AcDbLine
 10
9.6787352556
 20
4.0424311927
 30
0.0
 11
9.6787352556
 21
2.5848460026
 31
0.0
  0
LINE
  5
1C5
330
195
100
AcDbEntity
  8
Default
  6
Continuous
 62
     7
100
AcDbLine
 10
7.731438401
 20
4.0424311927
 30
0.0
 11
9.6787352556
 21
4.0424311927
 31
0.0
  0
LINE
  5
1C6
330
195
100
AcDbEntity
  8
Default
  6
Continuous
 62
     7
100
AcDbLine
 10
7.731438401
 20
5.1419724771
 30
0.0
 11
7.731438401
 21
4.0424311927
 31
0.0
  0
LINE
  5
1C7
330
195
100
AcDbEntity
  8
Default
  6
Continuous
 62
     7
100
AcDbLine
 10
9.7780635649
 20
5.1419724771
 30
0.0
 11
7.731438401
 21
5.1419724771
 31
0.0
  0
LINE
  5
1C8
330
195
100
AcDbEntity
  8
Default
  6
Continuous
 62
     7
100
AcDbLine
 10
9.7780635649
 20
6.5926277851
 30
0.0
 11
9.7780635649
 21
5.1419724771
 31
0.0
  0
LINE
  5
1C9
330
195
100
AcDbEntity
  8
Default
  6
Continuous
 62
     7
100
AcDbLine
 10
1.7093709043
 20
5.280570118
 30
0.0
 11
1.7093709043
 21
3.6312581913
 31
0.0
  0
LINE
  5
1CA
330
195
100
AcDbEntity
  8
Default
  6
Continuous
 62
     7
100
AcDbLine
 10
1.7093709043
 20
3.6312581913
 30
0.0
 11
1.8803079948
 21
3.6312581913
 31
0.0
  0
SPLINE
  5
1CB
330
195
100
AcDbEntity
  8
Default
  6
Continuous
 62
     7
100
AcDbSpline
210
0.0
220
0.0
230
1.0
 70
     8
 71
     3
 72
    29
 73
    25
 74
     0
 42
0.0000000028633018
 43
0.0000000001
 12
1.0
 22
0.0
 32
0.0
 13
1.0
 23
0.0
 33
0.0
 40
0.0
 40
0.0
 40
0.0
 40
0.0
 40
0.1203556671631279
 40
0.1203556671631279
 40
0.1203556671631279
 40
0.2363519504887718
 40
0.2363519504887718
 40
0.2363519504887718
 40
0.3551316836966588
 40
0.3551316836966588
 40
0.4739114169045465
 40
0.4739114169045465
 40
0.5942337440501996
 40
0.5942337440501996
 40
0.7145560711958533
 40
0.7145560711958533
 40
0.7145560711958533
 40
0.8303426976884648
 40
0.8303426976884648
 40
0.8303426976884648
 40
0.9506957818555967
 40
0.9506957818555967
 40
0.9506957818555967
 40
1.0
 40
1.0
 40
1.0
 40
1.0
 10
1.880307994757537
 20
3.631258191349935
 30
0.0
 10
2.018905635648757
 20
3.631258191349935
 30
0.0
 10
2.157503276539977
 20
3.640498034076017
 30
0.0
 10
2.296100917431193
 20
3.661287680209699
 30
0.0
 10
2.436957688573287
 20
3.682416195881014
 30
0.0
 10
2.564056356487548
 20
3.719036697247708
 30
0.0
 10
2.679554390563567
 20
3.776785714285715
 30
0.0
 10
2.795976408912189
 20
3.834996723460025
 30
0.0
 10
2.889760812581915
 20
3.915383355176934
 30
0.0
 10
3.028358453473135
 20
4.132519659239843
 30
0.0
 10
3.063007863695937
 20
4.278047182175624
 30
0.0
 10
3.063007863695937
 20
4.636091087811272
 30
0.0
 10
3.028358453473135
 20
4.779308650065532
 30
0.0
 10
2.889760812581915
 20
4.996444954128441
 30
0.0
 10
2.797362385321101
 20
5.079603538663172
 30
0.0
 10
2.679554390563567
 20
5.13735255570118
 30
0.0
 10
2.564521785639126
 20
5.193741087526886
 30
0.0
 10
2.437008519003932
 20
5.229750982961993
 30
0.0
 10
2.296100917431193
 20
5.250540629095676
 30
0.0
 10
2.157454063805833
 20
5.270996722253517
 30
0.0
 10
2.018905635648757
 20
5.28057011795544
 30
0.0
 10
1.880307994757537
 20
5.28057011795544
 30
0.0
 10
1.823328964613371
 20
5.28057011795544
 30
0.0
 10
1.766349934469201
 20
5.28057011795544
 30
0.0
 10
1.709370904325031
 20
5.28057011795544
 30
0.0
  0
LINE
  5
1CC
330
195
100
AcDbEntity
  8
Default
  6
Continuous
 62
     7
100
AcDbLine
 10
1.7093709043
 20
0.0
 30
0.0
 11
0.0
 21
0.0
 31
0.0
  0
LINE
  5
1CD
330
195
100
AcDbEntity
  8
Default
  6
Continuous
 62
     7
100
AcDbLine
 10
1.7093709043
 20
2.5340268676
 30
0.0
 11
1.7093709043
 21
0.0
 31
0.0
  0
LINE
  5
1CE
330
195
100
AcDbEntity
  8
Default
  6
Continuous
 62
     7
100
AcDbLine
 10
3.3402031455
 20
0.0
 30
0.0
 11
1.7093709043
 21
2.5340268676
 31
0.0
  0
LINE
  5
1CF
330
195
100
AcDbEntity
  8
Default
  6
Continuous
 62
     7
100
AcDbLine
 10
5.4769167759
 20
0.0
 30
0.0
 11
3.3402031455
 21
0.0
 31
0.0
  0
LINE
  5
1D0
330
195
100
AcDbEntity
  8
Default
  6
Continuous
 62
     7
100
AcDbLine
 10
3.4002621232
 20
2.7003440367
 30
0.0
 11
5.4769167759
 21
0.0
 31
0.0
  0
SPLINE
  5
1D1
330
195
100
AcDbEntity
  8
Default
  6
Continuous
 62
     7
100
AcDbSpline
210
0.0
220
0.0
230
1.0
 70
     8
 71
     3
 72
    39
 73
    35
 74
     0
 42
0.0000000006617465
 43
0.0000000001
 12
1.0
 22
0.0
 32
0.0
 13
1.0
 23
0.0
 33
0.0
 40
0.0
 40
0.0
 40
0.0
 40
0.0
 40
0.4184837171182216
 40
0.4184837171182216
 40
0.4184837171182216
 40
0.4329116956232541
 40
0.4329116956232541
 40
0.447940839899329
 40
0.447940839899329
 40
0.447940839899329
 40
0.5989875461512338
 40
0.5989875461512338
 40
0.5989875461512338
 40
0.65983019696195
 40
0.65983019696195
 40
0.65983019696195
 40
0.7141636694202442
 40
0.7141636694202442
 40
0.7141636694202442
 40
0.7672492360561214
 40
0.7672492360561214
 40
0.7672492360561214
 40
0.8311842098663922
 40
0.8311842098663922
 40
0.8732466926363075
 40
0.8732466926363075
 40
0.8732466926363075
 40
0.9147241024096695
 40
0.9147241024096695
 40
0.9147241024096695
 40
0.9560702513872078
 40
0.9560702513872078
 40
0.9560702513872078
 40
1.0
 40
1.0
 40
1.0
 40
1.0
 10
0.0
 20
0.0
 30
0.0
 10
0.0
 20
2.101294233289646
 30
0.0
 10
0.0
 20
4.202588466579293
 30
0.0
 10
0.0
 20
6.303882699868939
 30
0.0
 10
0.0
 20
6.38473132372215
 30
0.0
 10
0.0277195281782454
 20
6.451720183486239
 30
0.0
 10
0.1409076015727422
 20
6.564908256880734
 30
0.0
 10
0.2055865006553077
 20
6.592627785058978
 30
0.0
 10
0.2771952817824364
 20
6.592627785058978
 30
0.0
 10
1.035632372214941
 20
6.592627785058978
 30
0.0
 10
1.794069462647446
 20
6.592627785058977
 30
0.0
 10
2.552506553079947
 20
6.592627785058978
 30
0.0
 10
2.878211009174311
 20
6.592627785058978
 30
0.0
 10
3.180815858453474
 20
6.553358453473132
 30
0.0
 10
3.458011140235911
 20
6.472509829619922
 30
0.0
 10
3.736714364351247
 20
6.39122138925295
 30
0.0
 10
3.977752293577982
 20
6.271543250327655
 30
0.0
 10
4.18333879423329
 20
6.105226081258192
 30
0.0
 10
4.387795784926965
 20
5.939822673056568
 30
0.0
 10
4.550622542595022
 20
5.731012450851901
 30
0.0
 10
4.666120576671034
 20
5.476916775884666
 30
0.0
 10
4.782488801414747
 20
5.220906681448501
 30
0.0
 10
4.839367627785059
 20
4.917906290956751
 30
0.0
 10
4.839367627785059
 20
4.335796199213631
 30
0.0
 10
4.809338138925298
 20
4.116349934469202
 30
0.0
 10
4.744659239842726
 20
3.913073394495413
 30
0.0
 10
4.679525282839784
 20
3.708366672486163
 30
0.0
 10
4.589891874180864
 20
3.520380078636961
 30
0.0
 10
4.467463958060289
 20
3.356372870249018
 30
0.0
 10
4.343928732125118
 20
3.19088228456228
 30
0.0
 10
4.19488859764089
 20
3.049148099606816
 30
0.0
 10
4.014711664482306
 20
2.9336500655308
 30
0.0
 10
3.836171940175813
 20
2.819201524308691
 30
0.0
 10
3.631258191349932
 20
2.739613368283093
 30
0.0
 10
3.400262123197905
 20
2.700344036697248
 30
0.0
  0
HATCH
  5
1D2
330
195
100
AcDbEntity
  8
Default
  6
Continuous
 62
     7
100
AcDbHatch
 10
0.0
 20
0.0
 30
0.0
210
0.0
220
0.0
230
1.0
  2
SOLID
 70
     1
 71
     0
 91
        2
 92
        1
 93
        6
 72
     4
 94
        3
 73
     0
 74
     0
 95
       39
 96
       35
 40
0.0
 40
0.0
 40
0.0
 40
0.0
 40
0.0439297486127922
 40
0.0439297486127922
 40
0.0439297486127922
 40
0.0852758975903305
 40
0.0852758975903305
 40
0.0852758975903305
 40
0.1267533073636925
 40
0.1267533073636925
 40
0.1267533073636925
 40
0.1688157901336078
 40
0.1688157901336078
 40
0.2327507639438786
 40
0.2327507639438786
 40
0.2327507639438786
 40
0.2858363305797558
 40
0.2858363305797558
 40
0.2858363305797558
 40
0.34016980303805
 40
0.34016980303805
 40
0.34016980303805
 40
0.4010124538487662
 40
0.4010124538487662
 40
0.4010124538487662
 40
0.552059160100671
 40
0.552059160100671
 40
0.552059160100671
 40
0.5670883043767458
 40
0.5670883043767458
 40
0.5815162828817784
 40
0.5815162828817784
 40
0.5815162828817784
 40
1.0
 40
1.0
 40
1.0
 40
1.0
 10
3.400262123197905
 20
2.700344036697248
 10
3.631258191349932
 20
2.739613368283093
 10
3.836171940175813
 20
2.819201524308691
 10
4.014711664482306
 20
2.9336500655308
 10
4.19488859764089
 20
3.049148099606816
 10
4.343928732125118
 20
3.19088228456228
 10
4.467463958060289
 20
3.356372870249018
 10
4.589891874180864
 20
3.520380078636961
 10
4.679525282839784
 20
3.708366672486163
 10
4.744659239842726
 20
3.913073394495413
 10
4.809338138925298
 20
4.116349934469202
 10
4.839367627785059
 20
4.335796199213631
 10
4.839367627785059
 20
4.917906290956751
 10
4.782488801414747
 20
5.220906681448501
 10
4.666120576671034
 20
5.476916775884666
 10
4.550622542595022
 20
5.731012450851901
 10
4.387795784926965
 20
5.939822673056568
 10
4.18333879423329
 20
6.105226081258192
 10
3.977752293577982
 20
6.271543250327655
 10
3.736714364351247
 20
6.39122138925295
 10
3.458011140235911
 20
6.472509829619922
 10
3.180815858453474
 20
6.553358453473132
 10
2.878211009174311
 20
6.592627785058978
 10
2.552506553079947
 20
6.592627785058978
 10
1.794069462647446
 20
6.592627785058977
 10
1.035632372214941
 20
6.592627785058978
 10
0.2771952817824364
 20
6.592627785058978
 10
0.2055865006553077
 20
6.592627785058978
 10
0.1409076015727422
 20
6.564908256880734
 10
0.0277195281782454
 20
6.451720183486239
 10
0.0
 20
6.38473132372215
 10
0.0
 20
6.303882699868939
 10
0.0
 20
4.202588466579293
 10
0.0
 20
2.101294233289646
 10
0.0
 20
0.0
 72
     1
 10
0.0
 20
0.0
 11
1.709370904325033
 21
0.0000000000000009
 72
     1
 10
1.709370904325031
 20
0.0000000000000009
 11
1.709370904325031
 21
2.534026867627786
 72
     1
 10
1.709370904325031
 20
2.534026867627786
 11
3.340203145478373
 21
0.0000000000000004
 72
     1
 10
3.340203145478373
 20
0.0000000000000009
 11
5.476916775884664
 21
0.0000000000000009
 72
     1
 10
5.476916775884668
 20
0.0000000000000009
 11
3.400262123197905
 21
2.700344036697248
 97
        0
 92
        1
 93
        3
 72
     1
 10
1.709370904325031
 20
5.28057011795544
 11
1.709370904325031
 21
3.631258191349935
 72
     1
 10
1.709370904325031
 20
3.631258191349935
 11
1.880307994757535
 21
3.631258191349935
 72
     4
 94
        3
 73
     0
 74
     0
 95
       29
 96
       25
 40
0.0
 40
0.0
 40
0.0
 40
0.0
 40
0.120355667163128
 40
0.120355667163128
 40
0.120355667163128
 40
0.2363519504887718
 40
0.2363519504887718
 40
0.2363519504887718
 40
0.3551316836966587
 40
0.3551316836966587
 40
0.4739114169045465
 40
0.4739114169045465
 40
0.5942337440501996
 40
0.5942337440501996
 40
0.7145560711958533
 40
0.7145560711958533
 40
0.7145560711958533
 40
0.8303426976884648
 40
0.8303426976884648
 40
0.8303426976884648
 40
0.9506957818555967
 40
0.9506957818555967
 40
0.9506957818555967
 40
1.0
 40
1.0
 40
1.0
 40
1.0
 10
1.880307994757537
 20
3.631258191349935
 10
2.018905635648757
 20
3.631258191349935
 10
2.157503276539977
 20
3.640498034076017
 10
2.296100917431193
 20
3.661287680209699
 10
2.436957688573287
 20
3.682416195881014
 10
2.564056356487548
 20
3.719036697247708
 10
2.679554390563567
 20
3.776785714285715
 10
2.795976408912189
 20
3.834996723460025
 10
2.889760812581915
 20
3.915383355176934
 10
3.028358453473135
 20
4.132519659239843
 10
3.063007863695937
 20
4.278047182175624
 10
3.063007863695937
 20
4.636091087811272
 10
3.028358453473135
 20
4.779308650065532
 10
2.889760812581915
 20
4.996444954128441
 10
2.797362385321101
 20
5.079603538663172
 10
2.679554390563567
 20
5.13735255570118
 10
2.564521785639126
 20
5.193741087526886
 10
2.437008519003932
 20
5.229750982961993
 10
2.296100917431193
 20
5.250540629095676
 10
2.157454063805833
 20
5.270996722253517
 10
2.018905635648757
 20
5.28057011795544
 10
1.880307994757537
 20
5.28057011795544
 10
1.823328964613371
 20
5.28057011795544
 10
1.766349934469201
 20
5.28057011795544
 10
1.709370904325031
 20
5.28057011795544
 97
        0
 75
     0
 76
     1
 98
        0
  0
HATCH
  5
1D3
330
195
100
AcDbEntity
  8
Default
  6
Continuous
 62
     7
100
AcDbHatch
 10
0.0
 20
0.0
 30
0.0
210
0.0
220
0.0
230
1.0
  2
SOLID
 70
     1
 71
     0
 91
        1
 92
        1
 93
       11
 72
     4
 94
        3
 73
     0
 74
     0
 95
       16
 96
       12
 40
0.0
 40
0.0
 40
0.0
 40
0.0
 40
0.3392889644065707
 40
0.3392889644065707
 40
0.3392889644065707
 40
0.3618671566114537
 40
0.3618671566114537
 40
0.3835422211281416
 40
0.3835422211281416
 40
0.3835422211281416
 40
1.0
 40
1.0
 40
1.0
 40
1.0
 10
9.778063564875495
 20
6.592627785058978
 10
8.621543250327658
 20
6.592627785058978
 10
7.465022935779817
 20
6.592627785058978
 10
6.30850262123198
 20
6.592627785058978
 10
6.229963958060289
 20
6.592627785058978
 10
6.162975098296197
 20
6.564908256880734
 10
6.049787024901704
 20
6.451720183486239
 10
6.022067496723459
 20
6.38473132372215
 10
6.022067496723459
 20
6.303882699868939
 10
6.022067496723459
 20
4.202588466579293
 10
6.022067496723459
 20
2.101294233289647
 10
6.022067496723459
 20
0.0000000000000018
 72
     1
 10
6.022067496723459
 20
0.0000000000000018
 11
9.778063564875495
 21
0.0000000000000009
 72
     1
 10
9.778063564875495
 20
0.0000000000000009
 11
9.778063564875495
 21
1.450655307994759
 72
     1
 10
9.778063564875495
 20
1.450655307994758
 11
7.731438401048491
 21
1.450655307994758
 72
     1
 10
7.731438401048493
 20
1.450655307994758
 11
7.731438401048493
 21
2.584846002621233
 72
     1
 10
7.731438401048493
 20
2.584846002621233
 11
9.678735255570121
 21
2.584846002621233
 72
     1
 10
9.678735255570121
 20
2.584846002621233
 11
9.678735255570121
 21
4.042431192660551
 72
     1
 10
9.678735255570121
 20
4.042431192660551
 11
7.731438401048493
 21
4.042431192660551
 72
     1
 10
7.731438401048493
 20
4.042431192660551
 11
7.731438401048493
 21
5.141972477064221
 72
     1
 10
7.731438401048493
 20
5.141972477064221
 11
9.778063564875497
 21
5.141972477064221
 72
     1
 10
9.778063564875495
 20
5.141972477064221
 11
9.778063564875495
 21
6.592627785058978
 97
        0
 75
     0
 76
     1
 98
        0
  0
HATCH
  5
1D4
330
195
100
AcDbEntity
  8
Default
  6
Continuous
 62
     7
100
AcDbHatch
 10
0.0
 20
0.0
 30
0.0
210
0.0
220
0.0
230
1.0
  2
SOLID
 70
     1
 71
     0
 91
        1
 92
        1
 93
        6
 72
     4
 94
        3
 73
     0
 74
     0
 95
       51
 96
       47
 40
0.0
 40
0.0
 40
0.0
 40
0.0
 40
0.0903181127538991
 40
0.0903181127538991
 40
0.1806362255077987
 40
0.1806362255077987
 40
0.2505107113883491
 40
0.2505107113883491
 40
0.2505107113883491
 40
0.3153180737852943
 40
0.3153180737852943
 40
0.3153180737852943
 40
0.3800992723712822
 40
0.3800992723712822
 40
0.3800992723712822
 40
0.4521169206302595
 40
0.4521169206302595
 40
0.5213407808102242
 40
0.5213407808102242
 40
0.5213407808102242
 40
0.5850582814386294
 40
0.5850582814386294
 40
0.5850582814386294
 40
0.6488037906897904
 40
0.6488037906897904
 40
0.6488037906897904
 40
0.718817254308538
 40
0.718817254308538
 40
0.7944820288920282
 40
0.7944820288920282
 40
0.7944820288920282
 40
0.8697367480753329
 40
0.8697367480753329
 40
0.8697367480753329
 40
0.9013515779285247
 40
0.9013515779285247
 40
0.9013515779285247
 40
0.9306379885930884
 40
0.9306379885930884
 40
0.9599243992576518
 40
0.9599243992576518
 40
0.9599243992576518
 40
0.9904597959709778
 40
0.9904597959709778
 40
0.9904597959709778
 40
1.0
 40
1.0
 40
1.0
 40
1.0
 10
16.88350262123198
 20
4.945625819134994
 10
16.59937745740498
 20
5.56931520314548
 10
16.20206422018348
 20
6.033617300131063
 10
15.18106159895151
 20
6.643446920052426
 10
14.58740170380079
 20
6.795904325032767
 10
13.37467234600262
 20
6.795904325032767
 10
12.88849518360602
 20
6.715532627831713
 10
12.44837811271297
 20
6.544118610747052
 10
12.00948558322411
 20
6.373181520314549
 10
11.6318070432484
 20
6.134109113501288
 10
11.31880733944954
 20
5.823410878112714
 10
11.00465268676278
 20
5.511566186107471
 10
10.76010389980871
 20
5.138136765961434
 10
10.58885976408912
 20
4.700769986893841
 10
10.41792267365662
 20
4.264187418086501
 10
10.33245412844037
 20
3.776785714285715
 10
10.33245412844037
 20
2.725753604193972
 10
10.41673087643255
 20
2.251733670943243
 10
10.58885976408912
 20
1.822558977719529
 10
10.76210681520315
 20
1.39059633027523
 10
10.99887791762487
 20
1.022140102874894
 10
11.30725753604194
 20
0.7183977719528185
 10
11.61448230668415
 20
0.4157929226736576
 10
11.9860833240235
 20
0.1770875389365569
 10
12.41834862385321
 20
0.0092398427260818
 10
12.85262123197903
 20
-0.1593872870249009
 10
13.32847313237222
 20
-0.2425458715596323
 10
14.40029488859764
 20
-0.2425458715596323
 10
14.91226036066398
 20
-0.1389661078830131
 10
15.37971821756225
 20
0.06467889908257
 10
15.84633027522936
 20
0.2679554390563577
 10
16.23809819736261
 20
0.6029285876097794
 10
16.5670380078637
 20
1.057961992136305
 10
16.70563564875491
 20
1.249688728702491
 10
16.80988280520848
 20
1.442190804023907
 10
16.88350262123198
 20
1.633142201834863
 10
16.95742136304062
 20
1.824868938401049
 10
17.01055045871559
 20
2.021215596330276
 10
17.08446920052425
 20
2.41852883355177
 10
17.10526611434193
 20
2.619624777619178
 10
17.11680865006553
 20
2.825081913499345
 10
17.12835845347313
 20
3.030668414154654
 10
17.14221821756225
 20
3.243184796854522
 10
17.14221821756225
 20
3.460321100917432
 10
17.14221821756225
 20
3.526539973787681
 10
17.14221821756225
 20
3.59275884665793
 10
17.14221821756225
 20
3.658977719528179
 72
     1
 10
17.14221821756225
 20
3.658977719528179
 11
13.83435452162517
 21
3.658977719528179
 72
     1
 10
13.83435452162517
 20
3.658977719528179
 11
13.83435452162517
 21
2.314580602883356
 72
     1
 10
13.83435452162517
 20
2.314580602883356
 11
15.33351900393184
 21
2.314580602883356
 72
     4
 94
        3
 73
     0
 74
     0
 95
       43
 96
       39
 40
0.0
 40
0.0
 40
0.0
 40
0.0
 40
0.0528407008768927
 40
0.0528407008768927
 40
0.0528407008768927
 40
0.101808017531148
 40
0.101808017531148
 40
0.101808017531148
 40
0.1527424680033737
 40
0.1527424680033737
 40
0.1527424680033737
 40
0.2046872249080309
 40
0.2046872249080309
 40
0.285201598110253
 40
0.285201598110253
 40
0.285201598110253
 40
0.3575698737778739
 40
0.3575698737778739
 40
0.3575698737778739
 40
0.4340109897737078
 40
0.4340109897737078
 40
0.5104521057695417
 40
0.5104521057695417
 40
0.5848456918726302
 40
0.5848456918726302
 40
0.5848456918726302
 40
0.6593973023253275
 40
0.6593973023253275
 40
0.6593973023253275
 40
0.7322081321972964
 40
0.7322081321972964
 40
0.7322081321972964
 40
0.808821291350857
 40
0.808821291350857
 40
0.9050626152462398
 40
0.9050626152462398
 40
0.9050626152462398
 40
1.0
 40
1.0
 40
1.0
 40
1.0
 10
15.33351900393184
 20
2.314580602883356
 10
15.31503931847969
 20
2.12285386631717
 10
15.26256022686942
 20
1.956138307659666
 10
15.17644167758847
 20
1.815629095674968
 10
15.08866317169069
 20
1.672411533420708
 10
14.98086470130555
 20
1.551204760042966
 10
14.84842726081258
 20
1.457585190039319
 10
14.7144495412844
 20
1.362876802096987
 10
14.5615512434976
 20
1.290461103946714
 10
14.39105504587156
 20
1.240448885976409
 10
14.21780799475754
 20
1.189629750982963
 10
14.03994102228047
 20
1.16653014416776
 10
13.56870904325033
 20
1.16653014416776
 10
13.32020716906946
 20
1.226055058977723
 10
13.10440694626475
 20
1.344397116644824
 10
12.88958060288335
 20
1.46220511140236
 10
12.7105124508519
 20
1.620114023591089
 10
12.56387614678899
 20
1.815629095674968
 10
12.41834862385321
 20
2.009665792922674
 10
12.30747051114023
 20
2.231422018348625
 10
12.15501310615989
 20
2.721133682830931
 10
12.11574377457405
 20
2.970609436435126
 10
12.11574377457405
 20
3.481110747051115
 10
12.15421681189757
 20
3.730147961786198
 10
12.22662188728703
 20
3.980062254259503
 10
12.29823066841416
 20
4.227228047182176
 10
12.40527884987617
 20
4.450080065344236
 10
12.54770642201835
 20
4.647640891218874
 10
12.69092398427261
 20
4.84629750982962
 10
12.86823374940279
 20
5.008983012075785
 10
13.08361730013106
 20
5.13042267365662
 10
13.30075360419397
 20
5.252850589777196
 10
13.54560943643512
 20
5.312909567496725
 10
14.17622870249017
 20
5.312909567496725
 10
14.47167626156505
 20
5.217916234390401
 10
14.7144495412844
 20
5.024164482306685
 10
14.95468545216252
 20
4.832437745740499
 10
15.1348623853211
 20
4.578342070773264
 10
15.25498034076016
 20
4.25956749672346
 72
     1
 10
15.25498034076016
 20
4.25956749672346
 11
16.88350262123198
 21
4.945625819134994
 97
        0
 75
     0
 76
     1
 98
        0
  0
HATCH
  5
1D5
330
195
100
AcDbEntity
  8
Default
  6
Continuous
 62
     7
100
AcDbHatch
 10
0.0
 20
0.0
 30
0.0
210
0.0
220
0.0
230
1.0
  2
SOLID
 70
     1
 71
     0
 91
        2
 92
        1
 93
        1
 72
     4
 94
        3
 73
     0
 74
     0
 95
       49
 96
       45
 40
0.0
 40
0.0
 40
0.0
 40
0.0
 40
0.0620905351842325
 40
0.0620905351842325
 40
0.0620905351842325
 40
0.1225274789213882
 40
0.1225274789213882
 40
0.1225274789213882
 40
0.1824107500595676
 40
0.1824107500595676
 40
0.1824107500595676
 40
0.2443092731117129
 40
0.2443092731117129
 40
0.3113899980938052
 40
0.3113899980938052
 40
0.3113899980938052
 40
0.373038281101099
 40
0.373038281101099
 40
0.4342493422430935
 40
0.4342493422430935
 40
0.4342493422430935
 40
0.5005101029271146
 40
0.5005101029271146
 40
0.5664827733472912
 40
0.5664827733472912
 40
0.5664827733472912
 40
0.6277456785228048
 40
0.6277456785228048
 40
0.6277456785228048
 40
0.6890483024008142
 40
0.6890483024008142
 40
0.6890483024008142
 40
0.7561017319004357
 40
0.7561017319004357
 40
0.8179750681339922
 40
0.8179750681339922
 40
0.8179750681339922
 40
0.8779262347345869
 40
0.8779262347345869
 40
0.8779262347345869
 40
0.9382003516792404
 40
0.9382003516792404
 40
0.9382003516792404
 40
1.0
 40
1.0
 40
1.0
 40
1.0
 10
21.44336500655308
 20
6.83055373525557
 10
20.96520314547837
 20
6.82824377457405
 10
20.50677543450266
 20
6.747870526797538
 10
20.06662844036697
 20
6.581077981651377
 10
19.62773591087812
 20
6.414760812581914
 10
19.23849979910015
 20
6.18016634116182
 10
18.90009829619921
 20
5.878849934469201
 10
18.56284403669725
 20
5.57855504587156
 10
18.2953544565906
 20
5.21684411217912
 10
18.0916120576671
 20
4.800098296199214
 10
17.88833551769332
 20
4.384305373525557
 10
17.78669724770642
 20
3.926933158584535
 10
17.78669724770642
 20
2.892070773263434
 10
17.87990551563201
 20
2.402690597965156
 10
18.06158256880734
 20
1.958846657929228
 10
18.24406946264745
 20
1.513024246395807
 10
18.49585517693316
 20
1.129570773263435
 10
19.14495412844037
 20
0.4804718217562263
 10
19.53023971314575
 20
0.2274883817829441
 10
19.9788499344692
 20
0.0485091743119273
 10
20.42467234600262
 20
-0.1293577981651364
 10
20.91207404980341
 20
-0.2194462647444295
 10
21.97234600262123
 20
-0.2194462647444295
 10
22.46253572118054
 20
-0.1305468044592142
 10
22.90788007863696
 20
0.0485091743119273
 10
23.3560124508519
 20
0.2286861074705122
 10
23.7406207864759
 20
0.4793333402928437
 10
24.06055045871559
 20
0.8038663171690699
 10
24.38163499344692
 20
1.129570773263435
 10
24.63260786737497
 20
1.513358696334639
 10
24.81590760157274
 20
1.958846657929228
 10
24.99839449541284
 20
2.402359108781128
 10
25.08848296199213
 20
2.892070773263434
 10
25.08848296199213
 20
3.926933158584535
 10
24.9863762849025
 20
4.38296991497732
 10
24.78587811271298
 20
4.800098296199214
 10
24.58491153342071
 20
5.218201179554391
 10
24.31246764930903
 20
5.576127116722139
 10
23.97508191349934
 20
5.878849934469201
 10
23.63782765399738
 20
6.181454783748363
 10
23.25051470703607
 20
6.416785102496653
 10
22.81317169069462
 20
6.581077981651377
 10
22.37658912188729
 20
6.745085190039319
 10
21.91919464291449
 20
6.832852429151036
 10
21.44336500655308
 20
6.83055373525557
 97
        0
 92
        1
 93
        1
 72
     4
 94
        3
 73
     0
 74
     0
 95
       47
 96
       43
 40
0.0
 40
0.0
 40
0.0
 40
0.0
 40
0.0637917384076936
 40
0.0637917384076936
 40
0.0637917384076936
 40
0.1265834997779105
 40
0.1265834997779105
 40
0.1893752611481285
 40
0.1893752611481285
 40
0.1893752611481285
 40
0.2604081010642026
 40
0.2604081010642026
 40
0.3159741129340349
 40
0.3159741129340349
 40
0.3159741129340349
 40
0.3751091105868485
 40
0.3751091105868485
 40
0.3751091105868485
 40
0.435995169879425
 40
0.435995169879425
 40
0.435995169879425
 40
0.4997689343159712
 40
0.4997689343159712
 40
0.5635426987525196
 40
0.5635426987525196
 40
0.5635426987525196
 40
0.624232315369434
 40
0.624232315369434
 40
0.624232315369434
 40
0.6835869381889372
 40
0.6835869381889372
 40
0.6835869381889372
 40
0.7357943705008892
 40
0.7357943705008892
 40
0.8025337685079206
 40
0.8025337685079206
 40
0.8692731665149518
 40
0.8692731665149518
 40
0.9360125645219831
 40
0.9360125645219831
 40
0.9360125645219831
 40
1.0
 40
1.0
 40
1.0
 40
1.0
 10
21.44336500655308
 20
1.450655307994758
 10
21.70208060288335
 20
1.450655307994758
 10
21.94462647444299
 20
1.501474442988205
 10
22.16869266055046
 20
1.600802752293579
 10
22.39468942225328
 20
1.700986883770089
 10
22.5937254259502
 20
1.836418741808651
 10
22.93097968545217
 20
2.187532765399738
 10
23.06495740498034
 20
2.395429226736567
 10
23.15966579292267
 20
2.63335517693316
 10
23.25469013236262
 20
2.87207485894082
 10
23.30519331585845
 20
3.132306684141548
 10
23.30519331585845
 20
3.642807994757537
 10
23.25668414154652
 20
3.862254259501967
 10
23.15966579292267
 20
4.074770642201835
 10
23.06391850987524
 20
4.284502786020031
 10
22.93097968545217
 20
4.472083879423329
 10
22.76235255570118
 20
4.636091087811272
 10
22.59487996078263
 20
4.798975392458079
 10
22.39506880733945
 20
4.927146133682831
 10
22.16869266055046
 20
5.021854521625164
 10
21.94345992894685
 20
5.116084541989939
 10
21.70208060288335
 20
5.167382044560944
 10
21.18464941022281
 20
5.167382044560944
 10
20.94210353866317
 20
5.118872870249017
 10
20.71572739187418
 20
5.021854521625164
 10
20.49213912866634
 20
4.926030980250372
 10
20.29300458715597
 20
4.797788335517694
 10
20.12437745740498
 20
4.636091087811272
 10
19.95459636352431
 20
4.473287299158574
 10
19.82177260812581
 20
4.284977064220183
 10
19.72244429882045
 20
4.074770642201835
 10
19.62222370164274
 20
3.86267589003505
 10
19.57229685452162
 20
3.642807994757537
 10
19.57229685452162
 20
3.132306684141548
 10
19.62311598951508
 20
2.871281127129752
 10
19.82177260812581
 20
2.395429226736567
 10
19.95575032765399
 20
2.187532765399738
 10
20.29300458715597
 20
1.836418741808651
 10
20.49166120576671
 20
1.700131061598952
 10
20.71572739187418
 20
1.600802752293579
 10
20.941724153577
 20
1.500618620817073
 10
21.18464941022281
 20
1.450655307994758
 10
21.44336500655308
 20
1.450655307994758
 97
        0
 75
     0
 76
     1
 98
        0
  0
HATCH
  5
1D6
330
195
100
AcDbEntity
  8
Default
  6
Continuous
 62
     7
100
AcDbHatch
 10
0.0
 20
0.0
 30
0.0
210
0.0
220
0.0
230
1.0
  2
SOLID
 70
     1
 71
     0
 91
        1
 92
        1
 93
        4
 72
     1
 10
28.07064220183486
 20
2.584846002621233
 11
28.07064220183486
 21
4.042431192660551
 72
     1
 10
28.07064220183486
 20
4.042431192660551
 11
25.93623853211009
 21
4.042431192660551
 72
     1
 10
25.93623853211009
 20
4.042431192660551
 11
25.93623853211009
 21
2.584846002621233
 72
     1
 10
25.93623853211009
 20
2.584846002621233
 11
28.07064220183486
 21
2.584846002621233
 97
        0
 75
     0
 76
     1
 98
        0
  0
HATCH
  5
1D7
330
195
100
AcDbEntity
  8
Default
  6
Continuous
 62
     7
100
AcDbHatch
 10
0.0
 20
0.0
 30
0.0
210
0.0
220
0.0
230
1.0
  2
SOLID
 70
     1
 71
     0
 91
        1
 92
        1
 93
        9
 72
     4
 94
        3
 73
     0
 74
     0
 95
       16
 96
       12
 40
0.0
 40
0.0
 40
0.0
 40
0.0
 40
0.3396620468027166
 40
0.3396620468027166
 40
0.3396620468027166
 40
0.3623316833330921
 40
0.3623316833330921
 40
0.3840945344022499
 40
0.3840945344022499
 40
0.3840945344022499
 40
1.0
 40
1.0
 40
1.0
 40
1.0
 10
32.58661533420707
 20
6.592627785058978
 10
31.42778505897771
 20
6.592627785058978
 10
30.26895478374836
 20
6.592627785058978
 10
29.110124508519
 20
6.592627785058978
 10
29.02927588466579
 20
6.592627785058978
 10
28.96228702490171
 20
6.564908256880734
 10
28.84909895150721
 20
6.451720183486239
 10
28.82137942332896
 20
6.38473132372215
 10
28.82137942332896
 20
6.303882699868939
 10
28.82137942332896
 20
4.202588466579293
 10
28.82137942332896
 20
2.101294233289646
 10
28.82137942332896
 20
0.0
 72
     1
 10
28.82137942332896
 20
0.0
 11
30.53999017038007
 21
0.0000000000000009
 72
     1
 10
30.53999017038007
 20
0.0000000000000009
 11
30.53999017038007
 21
2.584846002621234
 72
     1
 10
30.53999017038007
 20
2.584846002621234
 11
32.4872870249017
 21
2.584846002621233
 72
     1
 10
32.4872870249017
 20
2.584846002621233
 11
32.4872870249017
 21
4.042431192660551
 72
     1
 10
32.4872870249017
 20
4.042431192660551
 11
30.53999017038007
 21
4.042431192660551
 72
     1
 10
30.53999017038007
 20
4.042431192660551
 11
30.53999017038007
 21
5.141972477064221
 72
     1
 10
30.53999017038007
 20
5.141972477064221
 11
32.58661533420707
 21
5.141972477064221
 72
     1
 10
32.58661533420707
 20
5.141972477064221
 11
32.58661533420707
 21
6.592627785058978
 97
        0
 75
     0
 76
     1
 98
        0
  0
HATCH
  5
1D8
330
195
100
AcDbEntity
  8
Default
  6
Continuous
 62
     7
100
AcDbHatch
 10
0.0
 20
0.0
 30
0.0
210
0.0
220
0.0
230
1.0
  2
SOLID
 70
     1
 71
     0
 91
        1
 92
        1
 93
        4
 72
     4
 94
        3
 73
     0
 74
     0
 95
       14
 96
       10
 40
0.0
 40
0.0
 40
0.0
 40
0.0
 40
0.7580098693161609
 40
0.7580098693161609
 40
0.7580098693161609
 40
0.8789822868889446
 40
0.8789822868889446
 40
0.8789822868889446
 40
1.0
 40
1.0
 40
1.0
 40
1.0
 10
35.18532110091743
 20
6.608797509829621
 10
34.71100917431193
 20
6.608797509829621
 10
34.23669724770642
 20
6.608797509829621
 10
33.76238532110091
 20
6.608797509829621
 10
33.68153669724771
 20
6.608797509829621
 10
33.61680971405436
 20
6.578721860223512
 10
33.55910878112713
 20
6.523328964613368
 10
33.50135976408912
 20
6.467889908256881
 10
33.47364023591088
 20
6.400901048492791
 10
33.47364023591088
 20
6.320052424639582
 72
     1
 10
33.47364023591088
 20
6.320052424639582
 11
33.47364023591088
 21
0.0000000000000009
 72
     1
 10
33.47364023591088
 20
0.0000000000000009
 11
35.18532110091743
 21
0.0000000000000009
 72
     1
 10
35.18532110091743
 20
0.0000000000000009
 11
35.18532110091743
 21
6.608797509829621
 97
        0
 75
     0
 76
     1
 98
        0
  0
HATCH
  5
1D9
330
195
100
AcDbEntity
  8
Default
  6
Continuous
 62
     7
100
AcDbHatch
 10
0.0
 20
0.0
 30
0.0
210
0.0
220
0.0
230
1.0
  2
SOLID
 70
     1
 71
     0
 91
        1
 92
        1
 93
       12
 72
     1
 10
39.22313237221493
 20
4.885566841415466
 11
38.20905963302751
 21
6.592627785058978
 72
     1
 10
38.20905963302752
 20
6.592627785058978
 11
36.10468545216251
 21
6.592627785058978
 72
     1
 10
36.10468545216251
 20
6.592627785058978
 11
38.20905963302751
 21
3.525
 72
     1
 10
38.20905963302752
 20
3.525000000000001
 11
35.62652359108781
 21
0.0000000000000013
 72
     1
 10
35.6265235910878
 20
0.0000000000000009
 11
37.70317824377457
 21
0.0000000000000009
 72
     1
 10
37.70317824377457
 20
0.0000000000000009
 11
39.22313237221493
 21
2.145953473132373
 72
     1
 10
39.22313237221493
 20
2.145953473132373
 11
40.25568479685452
 21
0.5266710353866326
 72
     1
 10
40.25568479685452
 20
0.5266710353866322
 11
41.28823722149409
 21
1.995806028833553
 72
     1
 10
41.28823722149409
 20
1.995806028833553
 11
40.22565530799475
 21
3.525000000000001
 72
     1
 10
40.22565530799475
 20
3.525000000000001
 11
42.34157929226736
 21
6.592627785058978
 72
     1
 10
42.34157929226736
 20
6.592627785058978
 11
40.22565530799475
 21
6.592627785058978
 72
     1
 10
40.22565530799475
 20
6.592627785058978
 11
39.22313237221493
 21
4.885566841415466
 97
        0
 75
     0
 76
     1
 98
        0
  0
HATCH
  5
1DA
330
195
100
AcDbEntity
  8
Default
  6
Continuous
 62
     7
100
AcDbHatch
 10
0.0
 20
0.0
 30
0.0
210
0.0
220
0.0
230
1.0
  2
SOLID
 70
     1
 71
     0
 91
        1
 92
        1
 93
        3
 72
     4
 94
        3
 73
     0
 74
     0
 95
       13
 96
        9
 40
0.0
 40
0.0
 40
0.0
 40
0.0
 40
0.0445094381088423
 40
0.0445094381088423
 40
0.0908355879772283
 40
0.0908355879772283
 40
0.0908355879772283
 40
1.0
 40
1.0
 40
1.0
 40
1.0
 10
45.71181192660551
 20
6.414760812581914
 10
45.61941349934469
 20
6.53256880733945
 10
45.51546526867628
 20
6.592627785058978
 10
45.28446920052424
 20
6.592627785058978
 10
45.18660375034128
 20
6.531537694833034
 10
45.10429226736566
 20
6.414760812581914
 10
43.69752621231979
 20
4.418954783748362
 10
42.29076015727392
 20
2.423148754914811
 10
40.88399410222804
 20
0.427342726081259
 72
     4
 94
        3
 73
     0
 74
     0
 95
       11
 96
        7
 40
0.0
 40
0.0
 40
0.0
 40
0.0
 40
0.3439066424360135
 40
0.3439066424360135
 40
0.3439066424360135
 40
1.0
 40
1.0
 40
1.0
 40
1.0
 10
40.88399410222804
 20
0.427342726081259
 10
40.83086500655307
 20
0.3418741808650076
 10
40.80230295367286
 20
0.2725253209688669
 10
40.80314547837483
 20
0.2194462647444313
 10
40.80545543905635
 20
0.0739187418086509
 10
40.90709370904325
 20
0.0000000000000009
 10
41.11268020969855
 20
0.0000000000000009
 72
     4
 94
        3
 73
     0
 74
     0
 95
       16
 96
       12
 40
0.0
 40
0.0
 40
0.0
 40
0.0
 40
0.5188870924081099
 40
0.5188870924081099
 40
0.5188870924081099
 40
0.544909989588877
 40
0.544909989588877
 40
0.5581347406151689
 40
0.5581347406151689
 40
0.5581347406151689
 40
1.0
 40
1.0
 40
1.0
 40
1.0
 10
41.11268020969855
 20
0.0000000000000009
 10
43.98011140235911
 20
0.0000000000000009
 10
46.84754259501965
 20
0.0000000000000009
 10
49.71497378768021
 20
0.0000000000000009
 10
49.91363040629096
 20
0.0000000000000009
 10
50.01295871559633
 20
0.0692988204456104
 10
50.01295871559633
 20
0.281815203145479
 10
49.98455330475264
 20
0.352940532254955
 10
49.93211009174313
 20
0.427342726081259
 10
48.52534403669725
 20
2.42314875491481
 10
47.11857798165137
 20
4.418954783748362
 10
45.71181192660551
 20
6.414760812581914
 97
        0
 75
     0
 76
     1
 98
        0
  0
ENDBLK
  5
1DC
330
195
100
AcDbEntity
  8
0
100
AcDbBlockEnd
  0
BLOCK
  5
1E6
330
1DD
100
AcDbEntity
  8
0
100
AcDbBlockBegin
  2
RF-Massblatt_2016
 70
     0
 10
0.0
 20
0.0
 30
0.0
  3
RF-Massblatt_2016
  1

  0
MTEXT
  5
1DE
102
{ACAD_XDICTIONARY
360
1F0
102
}
330
1DD
100
AcDbEntity
  8
Default
100
AcDbMText
 10
15.2206856049
 20
34.8070876502
 30
0.0
 40
2.5
 41
48.9706096033
 71
     1
 72
     1
  3
{\fVectora Com 45 Light|b1||i0||c0|p34;\C7;\H2.5;\W1.;REGO-FIX AG\P}{\fVectora Com 45 Light|b0||i0||c0|p34;\C7;\H2.5;\W1.;Obermattweg 60\P}{\fVectora Com 45 Light|b0||i0||c0|p34;\C7;\H2.5;\W1.;4456 Tenniken / Switzerland\P}{\fVectora Com 45 Light|b0
  3
||i0||c0|p34;\C7;\H2.5;\W1.;\P}{\fVectora Com 45 Light|b0||i0||c0|p34;\C7;\H2.5;\W1.;P +41 61 976 14 66\P}{\fVectora Com 45 Light|b0||i0||c0|p34;\C7;\H2.5;\W1.;F +41 61 976 14 14\P}{\fVectora Com 45 Light|b1||i0||c0|p34;\C7;\H2.5;\W1.;www.rego-fix.c
  1
om}
 73
     1
 44
1.0
1001
ACAD
1000
ACAD_MTEXT_DEFINED_HEIGHT_BEGIN
1070
    46
1040
31.3191355437
1000
ACAD_MTEXT_DEFINED_HEIGHT_END
  0
MTEXT
  5
1DF
102
{ACAD_XDICTIONARY
360
1F2
102
}
330
1DD
100
AcDbEntity
  8
Default
100
AcDbMText
 10
90.3836341545
 20
34.4892285804
 30
0.0
 40
2.5
 41
104.0282149141
 71
     1
 72
     1
  3
{\fSolid Edge ISO|b0||i0||c0|p34;\C7;\H2.;\W1.;This is a non-controlled copy. All information given herein is subject to change without notice\P}{\fSolid Edge ISO|b0||i0||c0|p34;\C7;\H2.;\W1.;\P}{\fSolid Edge ISO|b0||i0||c0|p34;\C7;\H2.;\W1.;The inf
  3
ormation given herein has been carefully checked and is believed to be correct. REGO-FIX,\P}{\fSolid Edge ISO|b0||i0||c0|p34;\C7;\H2.;\W1.;however, assumes no responsibility or liability for any errors, inaccuracies or omissions that may appear\P}{\
  3
fSolid Edge ISO|b0||i0||c0|p34;\C7;\H2.;\W1.;in this drawing\P}{\fSolid Edge ISO|b0||i0||c0|p34;\C7;\H2.;\W1.;\P}{\fSolid Edge ISO|b0||i0||c0|p34;\C7;\H2.;\W1.;This document is subject to copyright laws. No part of this document may be reproduced or
  3
 transmitted\P}{\fSolid Edge ISO|b0||i0||c0|p34;\C7;\H2.;\W1.;in any form or any means, electronic or mechanic, for any purpose, without the express written permission\P}{\fSolid Edge ISO|b0||i0||c0|p34;\C7;\H2.;\W1.;of REGO-FIX\P}{\fSolid Edge ISO|
  1
b0||i0||c0|p34;\C7;\H1.5;\W1.;\P}
 73
     1
 44
1.0
1001
ACAD
1000
ACAD_MTEXT_DEFINED_HEIGHT_BEGIN
1070
    46
1040
38.4545554545
1000
ACAD_MTEXT_DEFINED_HEIGHT_END
  0
INSERT
  5
1E0
330
1DD
100
AcDbEntity
  8
Default
100
AcDbBlockReference
  2
SEANNOT_GROUP
 10
0.0
 20
0.0
 30
0.0
  0
INSERT
  5
1E1
330
1DD
100
AcDbEntity
  8
Default
100
AcDbBlockReference
  2
SEANNOT_GROUP1
 10
0.0
 20
0.0
 30
0.0
  0
MTEXT
  5
1E2
102
{ACAD_XDICTIONARY
360
1F4
102
}
330
1DD
100
AcDbEntity
  8
Default
100
AcDbMText
 10
219.0323311835
 20
34.8066733186
 30
0.0
 40
2.5
 41
20.1335141444
 71
     1
 72
     1
  3
{\fVectora Com 45 Light|b0||i0||c0|p34;\C7;\H3.5;\W1.;Type :\P}{\fVectora Com 45 Light|b0||i0||c0|p34;\C7;\H3.5;\W1.;Part No. :\P}{\fVectora Com 45 Light|b0||i0||c0|p34;\C7;\H3.5;\W1.;Date : \P}{\fVectora Com 45 Light|b0||i0||c0|p34;\C7;\H3.5;\W1.;S
  1
cale :}
 73
     1
 44
1.0
1001
ACAD
1000
ACAD_MTEXT_DEFINED_HEIGHT_BEGIN
1070
    46
1040
23.6666666667
1000
ACAD_MTEXT_DEFINED_HEIGHT_END
  0
INSERT
  5
1E3
330
1DD
100
AcDbEntity
  8
Default
100
AcDbBlockReference
  2
SEANNOT_GROUP2
 10
0.0
 20
0.0
 30
0.0
  0
INSERT
  5
1E4
330
1DD
100
AcDbEntity
  8
Default
100
AcDbBlockReference
  2
SEANNOT_GROUP3
 10
0.0
 20
0.0
 30
0.0
  0
INSERT
  5
1E5
330
1DD
100
AcDbEntity
  8
Default
 62
     7
100
AcDbBlockReference
  2
Block1
 10
227.000440997
 20
183.1186606679
 30
0.0
  0
ENDBLK
  5
1E7
330
1DD
100
AcDbEntity
  8
0
100
AcDbBlockEnd
  0
ENDSEC
  0
SECTION
  2
ENTITIES
  0
INSERT
  5
41
330
1F
100
AcDbEntity
  8
Default
100
AcDbBlockReference
  2
SE
 10
0.0
 20
0.0
 30
0.0
  0
INSERT
  5
15D
330
1F
100
AcDbEntity
  8
Default
100
AcDbBlockReference
  2
SE1
 10
0.0
 20
0.0
 30
0.0
  0
INSERT
  5
165
330
1F
100
AcDbEntity
  8
Default
100
AcDbBlockReference
  2
GDimGGroup
 10
0.0
 20
0.0
 30
0.0
  0
INSERT
  5
170
330
1F
100
AcDbEntity
  8
Default
100
AcDbBlockReference
  2
GDimGGroup1
 10
0.0
 20
0.0
 30
0.0
  0
INSERT
  5
17A
330
1F
100
AcDbEntity
  8
Default
100
AcDbBlockReference
  2
GDimGGroup2
 10
0.0
 20
0.0
 30
0.0
  0
INSERT
  5
1E8
330
1F
100
AcDbEntity
  8
Default
 62
     7
100
AcDbBlockReference
  2
RF-Massblatt_2016
 10
0.0
 20
0.0
 30
0.0
  0
ENDSEC
  0
SECTION
  2
OBJECTS
  0
DICTIONARY
  5
C
330
0
100
AcDbDictionary
281
     1
  3
ACAD_GROUP
350
D
  3
ACAD_LAYOUT
350
1A
  3
ACAD_MATERIAL
350
3B
  3
ACAD_MLEADERSTYLE
350
1EB
  3
ACAD_MLINESTYLE
350
17
  3
ACAD_PLOTSETTINGS
350
19
  3
ACAD_PLOTSTYLENAME
350
E
  3
ACAD_VISUALSTYLE
350
2A
  3
AcDbVariableDictionary
350
1E9
  0
DICTIONARY
  5
1F0
330
1DE
100
AcDbDictionary
280
     1
281
     1
  3
ACAD_MTEXT_RT
360
1F1
  0
DICTIONARY
  5
1F2
330
1DF
100
AcDbDictionary
280
     1
281
     1
  3
ACAD_MTEXT_RT
360
1F3
  0
DICTIONARY
  5
1F4
330
1E2
100
AcDbDictionary
280
     1
281
     1
  3
ACAD_MTEXT_RT
360
1F5
  0
DICTIONARY
  5
D
102
{ACAD_REACTORS
330
C
102
}
330
C
100
AcDbDictionary
281
     1
  0
DICTIONARY
  5
1A
102
{ACAD_REACTORS
330
C
102
}
330
C
100
AcDbDictionary
281
     1
  3
Layout1
350
1E
  3
Model
350
22
  0
DICTIONARY
  5
3B
102
{ACAD_REACTORS
330
C
102
}
330
C
100
AcDbDictionary
281
     1
  3
ByBlock
350
3D
  3
ByLayer
350
3C
  3
Global
350
3E
  0
DICTIONARY
  5
1EB
102
{ACAD_REACTORS
330
C
102
}
330
C
100
AcDbDictionary
281
     1
  0
DICTIONARY
  5
17
102
{ACAD_REACTORS
330
C
102
}
330
C
100
AcDbDictionary
281
     1
  3
Standard
350
18
  0
DICTIONARY
  5
19
102
{ACAD_REACTORS
330
C
102
}
330
C
100
AcDbDictionary
281
     1
  0
ACDBDICTIONARYWDFLT
  5
E
102
{ACAD_REACTORS
330
C
102
}
330
C
100
AcDbDictionary
281
     1
  3
Normal
350
F
100
AcDbDictionaryWithDefault
340
F
  0
DICTIONARY
  5
2A
102
{ACAD_REACTORS
330
C
102
}
330
C
100
AcDbDictionary
281
     1
  3
2dWireframe
350
2F
  3
3D Hidden
350
31
  3
3dWireframe
350
30
  3
Basic
350
32
  3
Brighten
350
36
  3
ColorChange
350
3A
  3
Conceptual
350
34
  3
Dim
350
35
  3
Facepattern
350
39
  3
Flat
350
2B
  3
FlatWithEdges
350
2C
  3
Gouraud
350
2D
  3
GouraudWithEdges
350
2E
  3
Linepattern
350
38
  3
Realistic
350
33
  3
Thicken
350
37
  0
DICTIONARY
  5
1E9
102
{ACAD_REACTORS
330
C
102
}
330
C
100
AcDbDictionary
281
     1
  3
DIMASSOC
350
1EE
  3
HIDETEXT
350
1EF
  3
PSOLHEIGHT
350
1ED
  3
PSOLWIDTH
350
1EC
  0
XRECORD
  5
1F1
102
{ACAD_REACTORS
330
1F0
102
}
330
1F0
100
AcDbXrecord
280
     1
 40
10118767.0
  1
\pxsm1.;{\fVectora Com 45 Light|b1||i0||c0|p34;\C7;\H2.5;\W1.;REGO-FIX AG\P}{\fVectora Com 45 Light|b0||i0||c0|p34;\C7;\H2.5;\W1.;Obermattweg 60\P}{\fVectora Com 45 Light|b0||i0||c0|p34;\C7;\H2.5;\W1.;4456 Tenniken / Switzerland\P}{\fVectora Com 45 L
  1
ight|b0||i0||c0|p34;\C7;\H2.5;\W1.;\P}{\fVectora Com 45 Light|b0||i0||c0|p34;\C7;\H2.5;\W1.;P +41 61 976 14 66\P}{\fVectora Com 45 Light|b0||i0||c0|p34;\C7;\H2.5;\W1.;F +41 61 976 14 14\P}{\fVectora Com 45 Light|b1||i0||c0|p34;\C7;\H2.5;\W1.;www.rego
  1
-fix.com}
  0
XRECORD
  5
1F3
102
{ACAD_REACTORS
330
1F2
102
}
330
1F2
100
AcDbXrecord
280
     1
 40
47111022.0
  1
\pxsm1.;{\fSolid Edge ISO|b0||i0||c0|p34;\C7;\H2.;\W1.;This is a non-controlled copy. All information given herein is subject to change without notice\P}{\fSolid Edge ISO|b0||i0||c0|p34;\C7;\H2.;\W1.;\P}{\fSolid Edge ISO|b0||i0||c0|p34;\C7;\H2.;\W1.;
  1
The information given herein has been carefully checked and is believed to be correct. REGO-FIX,\P}{\fSolid Edge ISO|b0||i0||c0|p34;\C7;\H2.;\W1.;however, assumes no responsibility or liability for any errors, inaccuracies or omissions that may appea
  1
r\P}{\fSolid Edge ISO|b0||i0||c0|p34;\C7;\H2.;\W1.;in this drawing\P}{\fSolid Edge ISO|b0||i0||c0|p34;\C7;\H2.;\W1.;\P}{\fSolid Edge ISO|b0||i0||c0|p34;\C7;\H2.;\W1.;This document is subject to copyright laws. No part of this document may be reproduc
  1
ed or transmitted\P}{\fSolid Edge ISO|b0||i0||c0|p34;\C7;\H2.;\W1.;in any form or any means, electronic or mechanic, for any purpose, without the express written permission\P}{\fSolid Edge ISO|b0||i0||c0|p34;\C7;\H2.;\W1.;of REGO-FIX\P}{\fSolid Edge 
  1
ISO|b0||i0||c0|p34;\C7;\H1.5;\W1.;\P}
  0
XRECORD
  5
1F5
102
{ACAD_REACTORS
330
1F4
102
}
330
1F4
100
AcDbXrecord
280
     1
 40
2697483.0
  1
\pxsm1.;{\fVectora Com 45 Light|b0||i0||c0|p34;\C7;\H3.5;\W1.;Type :\P}{\fVectora Com 45 Light|b0||i0||c0|p34;\C7;\H3.5;\W1.;Part No. :\P}{\fVectora Com 45 Light|b0||i0||c0|p34;\C7;\H3.5;\W1.;Date : \P}{\fVectora Com 45 Light|b0||i0||c0|p34;\C7;\H3.5
  1
;\W1.;Scale :}
  0
LAYOUT
  5
1E
102
{ACAD_REACTORS
330
1A
102
}
330
1A
100
AcDbPlotSettings
  1

  2
none_device
  4

  6

 40
0.0
 41
0.0
 42
0.0
 43
0.0
 44
0.0
 45
0.0
 46
0.0
 47
0.0
 48
0.0
 49
0.0
140
0.0
141
0.0
142
1.0
143
1.0
 70
   688
 72
     0
 73
     0
 74
     5
  7

 75
    16
147
1.0
148
0.0
149
0.0
100
AcDbLayout
  1
Layout1
 70
     1
 71
     1
 10
0.0
 20
0.0
 11
297.0
 21
210.0
 12
0.0
 22
0.0
 32
0.0
 14
0.0
 24
0.0
 34
0.0
 15
297.0
 25
210.0
 35
0.0
146
0.0
 13
0.0
 23
0.0
 33
0.0
 16
1.0
 26
0.0
 36
0.0
 17
0.0
 27
1.0
 37
0.0
 76
     0
330
1B
  0
LAYOUT
  5
22
102
{ACAD_REACTORS
330
1A
102
}
330
1A
100
AcDbPlotSettings
  1

  2
none_device
  4

  6

 40
0.0
 41
0.0
 42
0.0
 43
0.0
 44
0.0
 45
0.0
 46
0.0
 47
0.0
 48
0.0
 49
0.0
140
0.0
141
0.0
142
1.0
143
1.0
 70
  1712
 72
     0
 73
     0
 74
     0
  7

 75
     0
147
1.0
148
0.0
149
0.0
100
AcDbLayout
  1
Model
 70
     1
 71
     0
 10
0.0
 20
0.0
 11
297.0
 21
210.0
 12
0.0
 22
0.0
 32
0.0
 14
0.0
 24
0.0
 34
0.0
 15
297.0
 25
210.0
 35
0.0
146
0.0
 13
0.0
 23
0.0
 33
0.0
 16
1.0
 26
0.0
 36
0.0
 17
0.0
 27
1.0
 37
0.0
 76
     0
330
1F
331
29
  0
MATERIAL
  5
3D
102
{ACAD_REACTORS
330
3B
102
}
102
{ACAD_XDICTIONARY
360
218
102
}
330
3B
100
AcDbMaterial
  1
ByBlock
  0
MATERIAL
  5
3C
102
{ACAD_REACTORS
330
3B
102
}
102
{ACAD_XDICTIONARY
360
216
102
}
330
3B
100
AcDbMaterial
  1
ByLayer
  0
MATERIAL
  5
3E
102
{ACAD_REACTORS
330
3B
102
}
102
{ACAD_XDICTIONARY
360
21A
102
}
330
3B
100
AcDbMaterial
  1
Global
  0
MLINESTYLE
  5
18
102
{ACAD_REACTORS
330
17
102
}
330
17
100
AcDbMlineStyle
  2
Standard
 70
     0
  3

 62
   256
 51
90.0
 52
90.0
 71
     2
 49
0.5
 62
   256
  6
BYLAYER
 49
-0.5
 62
   256
  6
BYLAYER
  0
ACDBPLACEHOLDER
  5
F
102
{ACAD_REACTORS
330
E
102
}
330
E
  0
VISUALSTYLE
  5
2F
102
{ACAD_REACTORS
330
2A
102
}
102
{ACAD_XDICTIONARY
360
1FE
102
}
330
2A
100
AcDbVisualStyle
  2
2dWireframe
 70
     4
 71
     0
 72
     2
 73
     0
 90
        0
 40
-0.6
 41
-30.0
 62
     5
 63
     7
 74
     1
 91
        4
 64
     7
 65
   257
 75
     1
175
     1
 42
1.0
 92
        0
 66
   257
 43
1.0
 76
     1
 77
     6
 78
     2
 67
     7
 79
     5
170
     0
171
     0
290
     0
174
     0
 93
        1
 44
0.0
173
     0
291
     0
 45
0.0
1001
ACAD
1000
AcDbSavedByObjectVersion
1070
     0
  0
VISUALSTYLE
  5
31
102
{ACAD_REACTORS
330
2A
102
}
102
{ACAD_XDICTIONARY
360
202
102
}
330
2A
100
AcDbVisualStyle
  2
3D Hidden
 70
     6
 71
     1
 72
     2
 73
     2
 90
        0
 40
-0.6
 41
-30.0
 62
     5
 63
     7
 74
     2
 91
        2
 64
     7
 65
   257
 75
     2
175
     1
 42
40.0
 92
        0
 66
   257
 43
1.0
 76
     1
 77
     6
 78
     2
 67
     7
 79
     3
170
     0
171
     0
290
     0
174
     0
 93
        1
 44
0.0
173
     0
291
     0
 45
0.0
1001
ACAD
1000
AcDbSavedByObjectVersion
1070
     0
  0
VISUALSTYLE
  5
30
102
{ACAD_REACTORS
330
2A
102
}
102
{ACAD_XDICTIONARY
360
200
102
}
330
2A
100
AcDbVisualStyle
  2
3dWireframe
 70
     5
 71
     0
 72
     2
 73
     0
 90
        0
 40
-0.6
 41
-30.0
 62
     5
 63
     7
 74
     1
 91
        4
 64
     7
 65
   257
 75
     1
175
     1
 42
1.0
 92
        0
 66
   257
 43
1.0
 76
     1
 77
     6
 78
     2
 67
     7
 79
     5
170
     0
171
     0
290
     0
174
     0
 93
        1
 44
0.0
173
     0
291
     0
 45
0.0
1001
ACAD
1000
AcDbSavedByObjectVersion
1070
     0
  0
VISUALSTYLE
  5
32
102
{ACAD_REACTORS
330
2A
102
}
102
{ACAD_XDICTIONARY
360
204
102
}
330
2A
100
AcDbVisualStyle
  2
Basic
 70
     7
 71
     1
 72
     0
 73
     1
 90
        0
 40
-0.6
 41
-30.0
 62
     5
 63
     7
 74
     0
 91
        4
 64
     7
 65
   257
 75
     1
175
     1
 42
1.0
 92
        8
 66
     7
 43
1.0
 76
     1
 77
     6
 78
     2
 67
     7
 79
     5
170
     0
171
     0
290
     0
174
     0
 93
        1
 44
0.0
173
     0
291
     1
 45
0.0
1001
ACAD
1000
AcDbSavedByObjectVersion
1070
     0
  0
VISUALSTYLE
  5
36
102
{ACAD_REACTORS
330
2A
102
}
102
{ACAD_XDICTIONARY
360
20C
102
}
330
2A
100
AcDbVisualStyle
  2
Brighten
 70
    12
 71
     2
 72
     2
 73
     0
 90
        0
 40
-0.6
 41
-30.0
 62
     5
 63
     7
 74
     1
 91
        4
 64
     7
 65
   257
 75
     1
175
     1
 42
1.0
 92
        8
 66
     7
 43
1.0
 76
     1
 77
     6
 78
     2
 67
     7
 79
     5
170
     0
171
     0
290
     0
174
     0
 93
        1
 44
50.0
173
     0
291
     1
 45
0.0
1001
ACAD
1000
AcDbSavedByObjectVersion
1070
     0
  0
VISUALSTYLE
  5
3A
102
{ACAD_REACTORS
330
2A
102
}
102
{ACAD_XDICTIONARY
360
214
102
}
330
2A
100
AcDbVisualStyle
  2
ColorChange
 70
    16
 71
     2
 72
     2
 73
     3
 90
        0
 40
-0.6
 41
-30.0
 62
     5
 63
     8
 74
     1
 91
        4
 64
     7
 65
   257
 75
     1
175
     1
 42
1.0
 92
        8
 66
     8
 43
1.0
 76
     1
 77
     6
 78
     2
 67
     7
 79
     5
170
     0
171
     0
290
     0
174
     0
 93
        1
 44
0.0
173
     0
291
     1
 45
0.0
1001
ACAD
1000
AcDbSavedByObjectVersion
1070
     0
  0
VISUALSTYLE
  5
34
102
{ACAD_REACTORS
330
2A
102
}
102
{ACAD_XDICTIONARY
360
208
102
}
330
2A
100
AcDbVisualStyle
  2
Conceptual
 70
     9
 71
     3
 72
     2
 73
     0
 90
        0
 40
-0.6
 41
-30.0
 62
     5
 63
     7
 74
     2
 91
        2
 64
     7
 65
   257
 75
     1
175
     1
 42
40.0
 92
        8
 66
     7
 43
1.0
 76
     1
 77
     6
 78
     2
 67
     7
 79
     3
170
     0
171
     0
290
     0
174
     0
 93
        1
 44
0.0
173
     0
291
     0
 45
0.0
1001
ACAD
1000
AcDbSavedByObjectVersion
1070
     0
  0
VISUALSTYLE
  5
35
102
{ACAD_REACTORS
330
2A
102
}
102
{ACAD_XDICTIONARY
360
20A
102
}
330
2A
100
AcDbVisualStyle
  2
Dim
 70
    11
 71
     2
 72
     2
 73
     0
 90
        0
 40
-0.6
 41
-30.0
 62
     5
 63
     7
 74
     1
 91
        4
 64
     7
 65
   257
 75
     1
175
     1
 42
1.0
 92
        8
 66
     7
 43
1.0
 76
     1
 77
     6
 78
     2
 67
     7
 79
     5
170
     0
171
     0
290
     0
174
     0
 93
        1
 44
-50.0
173
     0
291
     1
 45
0.0
1001
ACAD
1000
AcDbSavedByObjectVersion
1070
     0
  0
VISUALSTYLE
  5
39
102
{ACAD_REACTORS
330
2A
102
}
102
{ACAD_XDICTIONARY
360
212
102
}
330
2A
100
AcDbVisualStyle
  2
Facepattern
 70
    15
 71
     2
 72
     2
 73
     0
 90
        0
 40
-0.6
 41
-30.0
 62
     5
 63
     7
 74
     1
 91
        4
 64
     7
 65
   257
 75
     1
175
     1
 42
1.0
 92
        8
 66
     7
 43
1.0
 76
     1
 77
     6
 78
     2
 67
     7
 79
     5
170
     0
171
     0
290
     0
174
     0
 93
        1
 44
0.0
173
     0
291
     1
 45
0.0
1001
ACAD
1000
AcDbSavedByObjectVersion
1070
     0
  0
VISUALSTYLE
  5
2B
102
{ACAD_REACTORS
330
2A
102
}
102
{ACAD_XDICTIONARY
360
1F6
102
}
330
2A
100
AcDbVisualStyle
  2
Flat
 70
     0
 71
     2
 72
     1
 73
     1
 90
        2
 40
-0.6
 41
30.0
 62
     5
 63
     7
 74
     0
 91
        4
 64
     7
 65
   257
 75
     1
175
     1
 42
1.0
 92
        8
 66
     7
 43
1.0
 76
     1
 77
     6
 78
     2
 67
     7
 79
     5
170
     0
171
     0
290
     0
174
     0
 93
       13
 44
0.0
173
     0
291
     1
 45
0.0
1001
ACAD
1000
AcDbSavedByObjectVersion
1070
     0
  0
VISUALSTYLE
  5
2C
102
{ACAD_REACTORS
330
2A
102
}
102
{ACAD_XDICTIONARY
360
1F8
102
}
330
2A
100
AcDbVisualStyle
  2
FlatWithEdges
 70
     1
 71
     2
 72
     1
 73
     1
 90
        2
 40
-0.6
 41
30.0
 62
     5
 63
     7
 74
     1
 91
        4
 64
     7
 65
   257
 75
     1
175
     1
 42
1.0
 92
        0
 66
   257
 43
1.0
 76
     1
 77
     6
 78
     2
 67
     7
 79
     5
170
     0
171
     0
290
     0
174
     0
 93
       13
 44
0.0
173
     0
291
     1
 45
0.0
1001
ACAD
1000
AcDbSavedByObjectVersion
1070
     0
  0
VISUALSTYLE
  5
2D
102
{ACAD_REACTORS
330
2A
102
}
102
{ACAD_XDICTIONARY
360
1FA
102
}
330
2A
100
AcDbVisualStyle
  2
Gouraud
 70
     2
 71
     2
 72
     2
 73
     1
 90
        2
 40
-0.6
 41
30.0
 62
     5
 63
     7
 74
     0
 91
        4
 64
     7
 65
   257
 75
     1
175
     1
 42
1.0
 92
        0
 66
     7
 43
1.0
 76
     1
 77
     6
 78
     2
 67
     7
 79
     5
170
     0
171
     0
290
     0
174
     0
 93
       13
 44
0.0
173
     0
291
     1
 45
0.0
1001
ACAD
1000
AcDbSavedByObjectVersion
1070
     0
  0
VISUALSTYLE
  5
2E
102
{ACAD_REACTORS
330
2A
102
}
102
{ACAD_XDICTIONARY
360
1FC
102
}
330
2A
100
AcDbVisualStyle
  2
GouraudWithEdges
 70
     3
 71
     2
 72
     2
 73
     1
 90
        2
 40
-0.6
 41
30.0
 62
     5
 63
     7
 74
     1
 91
        4
 64
     7
 65
   257
 75
     1
175
     1
 42
1.0
 92
        0
 66
   257
 43
1.0
 76
     1
 77
     6
 78
     2
 67
     7
 79
     5
170
     0
171
     0
290
     0
174
     0
 93
       13
 44
0.0
173
     0
291
     1
 45
0.0
1001
ACAD
1000
AcDbSavedByObjectVersion
1070
     0
  0
VISUALSTYLE
  5
38
102
{ACAD_REACTORS
330
2A
102
}
102
{ACAD_XDICTIONARY
360
210
102
}
330
2A
100
AcDbVisualStyle
  2
Linepattern
 70
    14
 71
     2
 72
     2
 73
     0
 90
        0
 40
-0.6
 41
-30.0
 62
     5
 63
     7
 74
     1
 91
        4
 64
     7
 65
   257
 75
     7
175
     7
 42
1.0
 92
        8
 66
     7
 43
1.0
 76
     1
 77
     6
 78
     2
 67
     7
 79
     5
170
     0
171
     0
290
     0
174
     0
 93
        1
 44
0.0
173
     0
291
     1
 45
0.0
1001
ACAD
1000
AcDbSavedByObjectVersion
1070
     0
  0
VISUALSTYLE
  5
33
102
{ACAD_REACTORS
330
2A
102
}
102
{ACAD_XDICTIONARY
360
206
102
}
330
2A
100
AcDbVisualStyle
  2
Realistic
 70
     8
 71
     2
 72
     2
 73
     0
 90
        0
 40
-0.6
 41
-30.0
 62
     5
 63
     7
 74
     1
 91
        0
 64
     7
 65
   257
 75
     1
175
     1
 42
1.0
 92
        8
 66
     8
 43
1.0
 76
     1
 77
     6
 78
     2
 67
     7
 79
     5
170
     0
171
     0
290
     0
174
     0
 93
       13
 44
0.0
173
     0
291
     0
 45
0.0
1001
ACAD
1000
AcDbSavedByObjectVersion
1070
     0
  0
VISUALSTYLE
  5
37
102
{ACAD_REACTORS
330
2A
102
}
102
{ACAD_XDICTIONARY
360
20E
102
}
330
2A
100
AcDbVisualStyle
  2
Thicken
 70
    13
 71
     2
 72
     2
 73
     0
 90
        0
 40
-0.6
 41
-30.0
 62
     5
 63
     7
 74
     1
 91
        4
 64
     7
 65
   257
 75
     1
175
     1
 42
1.0
 92
       12
 66
     7
 43
1.0
 76
     1
 77
     6
 78
     2
 67
     7
 79
     5
170
     0
171
     0
290
     0
174
     0
 93
        1
 44
0.0
173
     0
291
     1
 45
0.0
1001
ACAD
1000
AcDbSavedByObjectVersion
1070
     0
  0
DICTIONARYVAR
  5
1EE
102
{ACAD_REACTORS
330
1E9
102
}
330
1E9
100
DictionaryVariables
280
     0
  1
2
  0
DICTIONARYVAR
  5
1EF
102
{ACAD_REACTORS
330
1E9
102
}
330
1E9
100
DictionaryVariables
280
     0
  1
1
  0
DICTIONARYVAR
  5
1ED
102
{ACAD_REACTORS
330
1E9
102
}
330
1E9
100
DictionaryVariables
280
     0
  1
80.000000
  0
DICTIONARYVAR
  5
1EC
102
{ACAD_REACTORS
330
1E9
102
}
330
1E9
100
DictionaryVariables
280
     0
  1
5.000000
  0
DICTIONARY
  5
218
330
3D
100
AcDbDictionary
280
     1
281
     1
  3
ACAD_XREC_ROUNDTRIP
360
219
  0
DICTIONARY
  5
216
330
3C
100
AcDbDictionary
280
     1
281
     1
  3
ACAD_XREC_ROUNDTRIP
360
217
  0
DICTIONARY
  5
21A
330
3E
100
AcDbDictionary
280
     1
281
     1
  3
ACAD_XREC_ROUNDTRIP
360
21B
  0
DICTIONARY
  5
1FE
330
2F
100
AcDbDictionary
280
     1
281
     1
  3
ACAD_XREC_ROUNDTRIP
360
1FF
  0
DICTIONARY
  5
202
330
31
100
AcDbDictionary
280
     1
281
     1
  3
ACAD_XREC_ROUNDTRIP
360
203
  0
DICTIONARY
  5
200
330
30
100
AcDbDictionary
280
     1
281
     1
  3
ACAD_XREC_ROUNDTRIP
360
201
  0
DICTIONARY
  5
204
330
32
100
AcDbDictionary
280
     1
281
     1
  3
ACAD_XREC_ROUNDTRIP
360
205
  0
DICTIONARY
  5
20C
330
36
100
AcDbDictionary
280
     1
281
     1
  3
ACAD_XREC_ROUNDTRIP
360
20D
  0
DICTIONARY
  5
214
330
3A
100
AcDbDictionary
280
     1
281
     1
  3
ACAD_XREC_ROUNDTRIP
360
215
  0
DICTIONARY
  5
208
330
34
100
AcDbDictionary
280
     1
281
     1
  3
ACAD_XREC_ROUNDTRIP
360
209
  0
DICTIONARY
  5
20A
330
35
100
AcDbDictionary
280
     1
281
     1
  3
ACAD_XREC_ROUNDTRIP
360
20B
  0
DICTIONARY
  5
212
330
39
100
AcDbDictionary
280
     1
281
     1
  3
ACAD_XREC_ROUNDTRIP
360
213
  0
DICTIONARY
  5
1F6
330
2B
100
AcDbDictionary
280
     1
281
     1
  3
ACAD_XREC_ROUNDTRIP
360
1F7
  0
DICTIONARY
  5
1F8
330
2C
100
AcDbDictionary
280
     1
281
     1
  3
ACAD_XREC_ROUNDTRIP
360
1F9
  0
DICTIONARY
  5
1FA
330
2D
100
AcDbDictionary
280
     1
281
     1
  3
ACAD_XREC_ROUNDTRIP
360
1FB
  0
DICTIONARY
  5
1FC
330
2E
100
AcDbDictionary
280
     1
281
     1
  3
ACAD_XREC_ROUNDTRIP
360
1FD
  0
DICTIONARY
  5
210
330
38
100
AcDbDictionary
280
     1
281
     1
  3
ACAD_XREC_ROUNDTRIP
360
211
  0
DICTIONARY
  5
206
330
33
100
AcDbDictionary
280
     1
281
     1
  3
ACAD_XREC_ROUNDTRIP
360
207
  0
DICTIONARY
  5
20E
330
37
100
AcDbDictionary
280
     1
281
     1
  3
ACAD_XREC_ROUNDTRIP
360
20F
  0
XRECORD
  5
219
102
{ACAD_REACTORS
330
218
102
}
330
218
100
AcDbXrecord
280
     1
102
MATERIAL
148
0.0
149
0.0
149
0.0
 93
        0
 94
      127
282
     0
 72
     1
 77
     1
171
     1
175
     1
179
     1
273
     0
  0
XRECORD
  5
217
102
{ACAD_REACTORS
330
216
102
}
330
216
100
AcDbXrecord
280
     1
102
MATERIAL
148
0.0
149
0.0
149
0.0
 93
        0
 94
      127
282
     0
 72
     1
 77
     1
171
     1
175
     1
179
     1
273
     0
  0
XRECORD
  5
21B
102
{ACAD_REACTORS
330
21A
102
}
330
21A
100
AcDbXrecord
280
     1
102
MATERIAL
148
0.0
149
0.0
149
0.0
 93
        0
 94
      127
282
     0
 72
     1
 77
     1
171
     1
175
     1
179
     1
273
     0
  0
XRECORD
  5
1FF
102
{ACAD_REACTORS
330
1FE
102
}
330
1FE
100
AcDbXrecord
280
     1
102
RTVSPropertyOp0
 70
     1
102
RTVSPropertyOp1
 70
     1
102
RTVSPropertyOp2
 70
     1
102
RTVSPropertyOp3
 70
     1
102
RTVSPropertyOp4
 70
     1
102
RTVSPropertyOp5
 70
     1
102
RTVSPropertyOp6
 70
     1
102
RTVSPropertyOp7
 70
     1
102
RTVSPropertyOp8
 70
     1
102
RTVSPropertyOp9
 70
     1
102
RTVSPropertyOp10
 70
     1
102
RTVSPropertyOp11
 70
     1
102
RTVSPropertyOp12
 70
     1
102
RTVSPropertyOp13
 70
     1
102
RTVSPropertyOp14
 70
     1
102
RTVSPropertyOp15
 70
     1
102
RTVSPropertyOp16
 70
     1
102
RTVSPropertyOp17
 70
     1
102
RTVSPropertyOp18
 70
     1
102
RTVSPropertyOp19
 70
     1
102
RTVSPropertyOp20
 70
     1
102
RTVSPropertyOp21
 70
     1
102
RTVSPropertyOp22
 70
     1
102
RTVSPropertyOp23
 70
     1
102
RTVSPropertyOp24
 70
     1
102
RTVSPropertyOp25
 70
     1
102
RTVSPropertyOp26
 70
     1
102
RTVSPropertyOp27
 70
     1
102
RTVSPropertyOp28
 70
     1
102
RTVSPropertyOp29
 70
     1
102
RTVSPropertyOp30
 70
     1
102
RTVSPropertyOp31
 70
     1
102
RTVSPropertyOp32
 70
     1
  0
XRECORD
  5
203
102
{ACAD_REACTORS
330
202
102
}
330
202
100
AcDbXrecord
280
     1
102
RTVSPropertyOp0
 70
     1
102
RTVSPropertyOp1
 70
     1
102
RTVSPropertyOp2
 70
     1
102
RTVSPropertyOp3
 70
     1
102
RTVSPropertyOp4
 70
     1
102
RTVSPropertyOp5
 70
     1
102
RTVSPropertyOp6
 70
     1
102
RTVSPropertyOp7
 70
     1
102
RTVSPropertyOp8
 70
     1
102
RTVSPropertyOp9
 70
     1
102
RTVSPropertyOp10
 70
     1
102
RTVSPropertyOp11
 70
     1
102
RTVSPropertyOp12
 70
     1
102
RTVSPropertyOp13
 70
     1
102
RTVSPropertyOp14
 70
     1
102
RTVSPropertyOp15
 70
     1
102
RTVSPropertyOp16
 70
     1
102
RTVSPropertyOp17
 70
     1
102
RTVSPropertyOp18
 70
     1
102
RTVSPropertyOp19
 70
     1
102
RTVSPropertyOp20
 70
     1
102
RTVSPropertyOp21
 70
     1
102
RTVSPropertyOp22
 70
     1
102
RTVSPropertyOp23
 70
     1
102
RTVSPropertyOp24
 70
     1
102
RTVSPropertyOp25
 70
     1
102
RTVSPropertyOp26
 70
     1
102
RTVSPropertyOp27
 70
     1
102
RTVSPropertyOp28
 70
     1
102
RTVSPropertyOp29
 70
     1
102
RTVSPropertyOp30
 70
     1
102
RTVSPropertyOp31
 70
     1
102
RTVSPropertyOp32
 70
     1
  0
XRECORD
  5
201
102
{ACAD_REACTORS
330
200
102
}
330
200
100
AcDbXrecord
280
     1
102
RTVSPropertyOp0
 70
     1
102
RTVSPropertyOp1
 70
     1
102
RTVSPropertyOp2
 70
     1
102
RTVSPropertyOp3
 70
     1
102
RTVSPropertyOp4
 70
     1
102
RTVSPropertyOp5
 70
     1
102
RTVSPropertyOp6
 70
     1
102
RTVSPropertyOp7
 70
     1
102
RTVSPropertyOp8
 70
     1
102
RTVSPropertyOp9
 70
     1
102
RTVSPropertyOp10
 70
     1
102
RTVSPropertyOp11
 70
     1
102
RTVSPropertyOp12
 70
     1
102
RTVSPropertyOp13
 70
     1
102
RTVSPropertyOp14
 70
     1
102
RTVSPropertyOp15
 70
     1
102
RTVSPropertyOp16
 70
     1
102
RTVSPropertyOp17
 70
     1
102
RTVSPropertyOp18
 70
     1
102
RTVSPropertyOp19
 70
     1
102
RTVSPropertyOp20
 70
     1
102
RTVSPropertyOp21
 70
     1
102
RTVSPropertyOp22
 70
     1
102
RTVSPropertyOp23
 70
     1
102
RTVSPropertyOp24
 70
     1
102
RTVSPropertyOp25
 70
     1
102
RTVSPropertyOp26
 70
     1
102
RTVSPropertyOp27
 70
     1
102
RTVSPropertyOp28
 70
     1
102
RTVSPropertyOp29
 70
     1
102
RTVSPropertyOp30
 70
     1
102
RTVSPropertyOp31
 70
     1
102
RTVSPropertyOp32
 70
     1
  0
XRECORD
  5
205
102
{ACAD_REACTORS
330
204
102
}
330
204
100
AcDbXrecord
280
     1
102
RTVSPropertyOp0
 70
     1
102
RTVSPropertyOp1
 70
     1
102
RTVSPropertyOp2
 70
     1
102
RTVSPropertyOp3
 70
     1
102
RTVSPropertyOp4
 70
     1
102
RTVSPropertyOp5
 70
     1
102
RTVSPropertyOp6
 70
     1
102
RTVSPropertyOp7
 70
     1
102
RTVSPropertyOp8
 70
     1
102
RTVSPropertyOp9
 70
     1
102
RTVSPropertyOp10
 70
     1
102
RTVSPropertyOp11
 70
     1
102
RTVSPropertyOp12
 70
     1
102
RTVSPropertyOp13
 70
     1
102
RTVSPropertyOp14
 70
     1
102
RTVSPropertyOp15
 70
     1
102
RTVSPropertyOp16
 70
     1
102
RTVSPropertyOp17
 70
     1
102
RTVSPropertyOp18
 70
     1
102
RTVSPropertyOp19
 70
     1
102
RTVSPropertyOp20
 70
     1
102
RTVSPropertyOp21
 70
     1
102
RTVSPropertyOp22
 70
     1
102
RTVSPropertyOp23
 70
     1
102
RTVSPropertyOp24
 70
     1
102
RTVSPropertyOp25
 70
     1
102
RTVSPropertyOp26
 70
     1
102
RTVSPropertyOp27
 70
     1
102
RTVSPropertyOp28
 70
     1
102
RTVSPropertyOp29
 70
     1
102
RTVSPropertyOp30
 70
     1
102
RTVSPropertyOp31
 70
     1
102
RTVSPropertyOp32
 70
     1
  0
XRECORD
  5
20D
102
{ACAD_REACTORS
330
20C
102
}
330
20C
100
AcDbXrecord
280
     1
102
RTVSPropertyOp0
 70
     1
102
RTVSPropertyOp1
 70
     1
102
RTVSPropertyOp2
 70
     1
102
RTVSPropertyOp3
 70
     1
102
RTVSPropertyOp4
 70
     1
102
RTVSPropertyOp5
 70
     1
102
RTVSPropertyOp6
 70
     1
102
RTVSPropertyOp7
 70
     1
102
RTVSPropertyOp8
 70
     1
102
RTVSPropertyOp9
 70
     1
102
RTVSPropertyOp10
 70
     1
102
RTVSPropertyOp11
 70
     1
102
RTVSPropertyOp12
 70
     1
102
RTVSPropertyOp13
 70
     1
102
RTVSPropertyOp14
 70
     1
102
RTVSPropertyOp15
 70
     1
102
RTVSPropertyOp16
 70
     1
102
RTVSPropertyOp17
 70
     1
102
RTVSPropertyOp18
 70
     1
102
RTVSPropertyOp19
 70
     1
102
RTVSPropertyOp20
 70
     1
102
RTVSPropertyOp21
 70
     1
102
RTVSPropertyOp22
 70
     1
102
RTVSPropertyOp23
 70
     1
102
RTVSPropertyOp24
 70
     1
102
RTVSPropertyOp25
 70
     1
102
RTVSPropertyOp26
 70
     1
102
RTVSPropertyOp27
 70
     1
102
RTVSPropertyOp28
 70
     1
102
RTVSPropertyOp29
 70
     1
102
RTVSPropertyOp30
 70
     1
102
RTVSPropertyOp31
 70
     1
102
RTVSPropertyOp32
 70
     1
  0
XRECORD
  5
215
102
{ACAD_REACTORS
330
214
102
}
330
214
100
AcDbXrecord
280
     1
102
RTVSPropertyOp0
 70
     1
102
RTVSPropertyOp1
 70
     1
102
RTVSPropertyOp2
 70
     1
102
RTVSPropertyOp3
 70
     1
102
RTVSPropertyOp4
 70
     1
102
RTVSPropertyOp5
 70
     1
102
RTVSPropertyOp6
 70
     1
102
RTVSPropertyOp7
 70
     1
102
RTVSPropertyOp8
 70
     1
102
RTVSPropertyOp9
 70
     1
102
RTVSPropertyOp10
 70
     1
102
RTVSPropertyOp11
 70
     1
102
RTVSPropertyOp12
 70
     1
102
RTVSPropertyOp13
 70
     1
102
RTVSPropertyOp14
 70
     1
102
RTVSPropertyOp15
 70
     1
102
RTVSPropertyOp16
 70
     1
102
RTVSPropertyOp17
 70
     1
102
RTVSPropertyOp18
 70
     1
102
RTVSPropertyOp19
 70
     1
102
RTVSPropertyOp20
 70
     1
102
RTVSPropertyOp21
 70
     1
102
RTVSPropertyOp22
 70
     1
102
RTVSPropertyOp23
 70
     1
102
RTVSPropertyOp24
 70
     1
102
RTVSPropertyOp25
 70
     1
102
RTVSPropertyOp26
 70
     1
102
RTVSPropertyOp27
 70
     1
102
RTVSPropertyOp28
 70
     1
102
RTVSPropertyOp29
 70
     1
102
RTVSPropertyOp30
 70
     1
102
RTVSPropertyOp31
 70
     1
102
RTVSPropertyOp32
 70
     1
  0
XRECORD
  5
209
102
{ACAD_REACTORS
330
208
102
}
330
208
100
AcDbXrecord
280
     1
102
RTVSPropertyOp0
 70
     1
102
RTVSPropertyOp1
 70
     1
102
RTVSPropertyOp2
 70
     1
102
RTVSPropertyOp3
 70
     1
102
RTVSPropertyOp4
 70
     1
102
RTVSPropertyOp5
 70
     1
102
RTVSPropertyOp6
 70
     1
102
RTVSPropertyOp7
 70
     1
102
RTVSPropertyOp8
 70
     1
102
RTVSPropertyOp9
 70
     1
102
RTVSPropertyOp10
 70
     1
102
RTVSPropertyOp11
 70
     1
102
RTVSPropertyOp12
 70
     1
102
RTVSPropertyOp13
 70
     1
102
RTVSPropertyOp14
 70
     1
102
RTVSPropertyOp15
 70
     1
102
RTVSPropertyOp16
 70
     1
102
RTVSPropertyOp17
 70
     1
102
RTVSPropertyOp18
 70
     1
102
RTVSPropertyOp19
 70
     1
102
RTVSPropertyOp20
 70
     1
102
RTVSPropertyOp21
 70
     1
102
RTVSPropertyOp22
 70
     1
102
RTVSPropertyOp23
 70
     1
102
RTVSPropertyOp24
 70
     1
102
RTVSPropertyOp25
 70
     1
102
RTVSPropertyOp26
 70
     1
102
RTVSPropertyOp27
 70
     1
102
RTVSPropertyOp28
 70
     1
102
RTVSPropertyOp29
 70
     1
102
RTVSPropertyOp30
 70
     1
102
RTVSPropertyOp31
 70
     1
102
RTVSPropertyOp32
 70
     1
  0
XRECORD
  5
20B
102
{ACAD_REACTORS
330
20A
102
}
330
20A
100
AcDbXrecord
280
     1
102
RTVSPropertyOp0
 70
     1
102
RTVSPropertyOp1
 70
     1
102
RTVSPropertyOp2
 70
     1
102
RTVSPropertyOp3
 70
     1
102
RTVSPropertyOp4
 70
     1
102
RTVSPropertyOp5
 70
     1
102
RTVSPropertyOp6
 70
     1
102
RTVSPropertyOp7
 70
     1
102
RTVSPropertyOp8
 70
     1
102
RTVSPropertyOp9
 70
     1
102
RTVSPropertyOp10
 70
     1
102
RTVSPropertyOp11
 70
     1
102
RTVSPropertyOp12
 70
     1
102
RTVSPropertyOp13
 70
     1
102
RTVSPropertyOp14
 70
     1
102
RTVSPropertyOp15
 70
     1
102
RTVSPropertyOp16
 70
     1
102
RTVSPropertyOp17
 70
     1
102
RTVSPropertyOp18
 70
     1
102
RTVSPropertyOp19
 70
     1
102
RTVSPropertyOp20
 70
     1
102
RTVSPropertyOp21
 70
     1
102
RTVSPropertyOp22
 70
     1
102
RTVSPropertyOp23
 70
     1
102
RTVSPropertyOp24
 70
     1
102
RTVSPropertyOp25
 70
     1
102
RTVSPropertyOp26
 70
     1
102
RTVSPropertyOp27
 70
     1
102
RTVSPropertyOp28
 70
     1
102
RTVSPropertyOp29
 70
     1
102
RTVSPropertyOp30
 70
     1
102
RTVSPropertyOp31
 70
     1
102
RTVSPropertyOp32
 70
     1
  0
XRECORD
  5
213
102
{ACAD_REACTORS
330
212
102
}
330
212
100
AcDbXrecord
280
     1
102
RTVSPropertyOp0
 70
     1
102
RTVSPropertyOp1
 70
     1
102
RTVSPropertyOp2
 70
     1
102
RTVSPropertyOp3
 70
     1
102
RTVSPropertyOp4
 70
     1
102
RTVSPropertyOp5
 70
     1
102
RTVSPropertyOp6
 70
     1
102
RTVSPropertyOp7
 70
     1
102
RTVSPropertyOp8
 70
     1
102
RTVSPropertyOp9
 70
     1
102
RTVSPropertyOp10
 70
     1
102
RTVSPropertyOp11
 70
     1
102
RTVSPropertyOp12
 70
     1
102
RTVSPropertyOp13
 70
     1
102
RTVSPropertyOp14
 70
     1
102
RTVSPropertyOp15
 70
     1
102
RTVSPropertyOp16
 70
     1
102
RTVSPropertyOp17
 70
     1
102
RTVSPropertyOp18
 70
     1
102
RTVSPropertyOp19
 70
     1
102
RTVSPropertyOp20
 70
     1
102
RTVSPropertyOp21
 70
     1
102
RTVSPropertyOp22
 70
     1
102
RTVSPropertyOp23
 70
     1
102
RTVSPropertyOp24
 70
     1
102
RTVSPropertyOp25
 70
     1
102
RTVSPropertyOp26
 70
     1
102
RTVSPropertyOp27
 70
     1
102
RTVSPropertyOp28
 70
     1
102
RTVSPropertyOp29
 70
     1
102
RTVSPropertyOp30
 70
     1
102
RTVSPropertyOp31
 70
     1
102
RTVSPropertyOp32
 70
     1
  0
XRECORD
  5
1F7
102
{ACAD_REACTORS
330
1F6
102
}
330
1F6
100
AcDbXrecord
280
     1
102
RTVSPropertyOp0
 70
     1
102
RTVSPropertyOp1
 70
     1
102
RTVSPropertyOp2
 70
     1
102
RTVSPropertyOp3
 70
     1
102
RTVSPropertyOp4
 70
     1
102
RTVSPropertyOp5
 70
     1
102
RTVSPropertyOp6
 70
     1
102
RTVSPropertyOp7
 70
     1
102
RTVSPropertyOp8
 70
     1
102
RTVSPropertyOp9
 70
     1
102
RTVSPropertyOp10
 70
     1
102
RTVSPropertyOp11
 70
     1
102
RTVSPropertyOp12
 70
     1
102
RTVSPropertyOp13
 70
     1
102
RTVSPropertyOp14
 70
     1
102
RTVSPropertyOp15
 70
     1
102
RTVSPropertyOp16
 70
     1
102
RTVSPropertyOp17
 70
     1
102
RTVSPropertyOp18
 70
     1
102
RTVSPropertyOp19
 70
     1
102
RTVSPropertyOp20
 70
     1
102
RTVSPropertyOp21
 70
     1
102
RTVSPropertyOp22
 70
     1
102
RTVSPropertyOp23
 70
     1
102
RTVSPropertyOp24
 70
     1
102
RTVSPropertyOp25
 70
     1
102
RTVSPropertyOp26
 70
     1
102
RTVSPropertyOp27
 70
     1
102
RTVSPropertyOp28
 70
     1
102
RTVSPropertyOp29
 70
     1
102
RTVSPropertyOp30
 70
     1
102
RTVSPropertyOp31
 70
     1
102
RTVSPropertyOp32
 70
     1
  0
XRECORD
  5
1F9
102
{ACAD_REACTORS
330
1F8
102
}
330
1F8
100
AcDbXrecord
280
     1
102
RTVSPropertyOp0
 70
     1
102
RTVSPropertyOp1
 70
     1
102
RTVSPropertyOp2
 70
     1
102
RTVSPropertyOp3
 70
     1
102
RTVSPropertyOp4
 70
     1
102
RTVSPropertyOp5
 70
     1
102
RTVSPropertyOp6
 70
     1
102
RTVSPropertyOp7
 70
     1
102
RTVSPropertyOp8
 70
     1
102
RTVSPropertyOp9
 70
     1
102
RTVSPropertyOp10
 70
     1
102
RTVSPropertyOp11
 70
     1
102
RTVSPropertyOp12
 70
     1
102
RTVSPropertyOp13
 70
     1
102
RTVSPropertyOp14
 70
     1
102
RTVSPropertyOp15
 70
     1
102
RTVSPropertyOp16
 70
     1
102
RTVSPropertyOp17
 70
     1
102
RTVSPropertyOp18
 70
     1
102
RTVSPropertyOp19
 70
     1
102
RTVSPropertyOp20
 70
     1
102
RTVSPropertyOp21
 70
     1
102
RTVSPropertyOp22
 70
     1
102
RTVSPropertyOp23
 70
     1
102
RTVSPropertyOp24
 70
     1
102
RTVSPropertyOp25
 70
     1
102
RTVSPropertyOp26
 70
     1
102
RTVSPropertyOp27
 70
     1
102
RTVSPropertyOp28
 70
     1
102
RTVSPropertyOp29
 70
     1
102
RTVSPropertyOp30
 70
     1
102
RTVSPropertyOp31
 70
     1
102
RTVSPropertyOp32
 70
     1
  0
XRECORD
  5
1FB
102
{ACAD_REACTORS
330
1FA
102
}
330
1FA
100
AcDbXrecord
280
     1
102
RTVSPropertyOp0
 70
     1
102
RTVSPropertyOp1
 70
     1
102
RTVSPropertyOp2
 70
     1
102
RTVSPropertyOp3
 70
     1
102
RTVSPropertyOp4
 70
     1
102
RTVSPropertyOp5
 70
     1
102
RTVSPropertyOp6
 70
     1
102
RTVSPropertyOp7
 70
     1
102
RTVSPropertyOp8
 70
     1
102
RTVSPropertyOp9
 70
     1
102
RTVSPropertyOp10
 70
     1
102
RTVSPropertyOp11
 70
     1
102
RTVSPropertyOp12
 70
     1
102
RTVSPropertyOp13
 70
     1
102
RTVSPropertyOp14
 70
     1
102
RTVSPropertyOp15
 70
     1
102
RTVSPropertyOp16
 70
     1
102
RTVSPropertyOp17
 70
     1
102
RTVSPropertyOp18
 70
     1
102
RTVSPropertyOp19
 70
     1
102
RTVSPropertyOp20
 70
     1
102
RTVSPropertyOp21
 70
     1
102
RTVSPropertyOp22
 70
     1
102
RTVSPropertyOp23
 70
     1
102
RTVSPropertyOp24
 70
     1
102
RTVSPropertyOp25
 70
     1
102
RTVSPropertyOp26
 70
     1
102
RTVSPropertyOp27
 70
     1
102
RTVSPropertyOp28
 70
     1
102
RTVSPropertyOp29
 70
     1
102
RTVSPropertyOp30
 70
     1
102
RTVSPropertyOp31
 70
     1
102
RTVSPropertyOp32
 70
     1
  0
XRECORD
  5
1FD
102
{ACAD_REACTORS
330
1FC
102
}
330
1FC
100
AcDbXrecord
280
     1
102
RTVSPropertyOp0
 70
     1
102
RTVSPropertyOp1
 70
     1
102
RTVSPropertyOp2
 70
     1
102
RTVSPropertyOp3
 70
     1
102
RTVSPropertyOp4
 70
     1
102
RTVSPropertyOp5
 70
     1
102
RTVSPropertyOp6
 70
     1
102
RTVSPropertyOp7
 70
     1
102
RTVSPropertyOp8
 70
     1
102
RTVSPropertyOp9
 70
     1
102
RTVSPropertyOp10
 70
     1
102
RTVSPropertyOp11
 70
     1
102
RTVSPropertyOp12
 70
     1
102
RTVSPropertyOp13
 70
     1
102
RTVSPropertyOp14
 70
     1
102
RTVSPropertyOp15
 70
     1
102
RTVSPropertyOp16
 70
     1
102
RTVSPropertyOp17
 70
     1
102
RTVSPropertyOp18
 70
     1
102
RTVSPropertyOp19
 70
     1
102
RTVSPropertyOp20
 70
     1
102
RTVSPropertyOp21
 70
     1
102
RTVSPropertyOp22
 70
     1
102
RTVSPropertyOp23
 70
     1
102
RTVSPropertyOp24
 70
     1
102
RTVSPropertyOp25
 70
     1
102
RTVSPropertyOp26
 70
     1
102
RTVSPropertyOp27
 70
     1
102
RTVSPropertyOp28
 70
     1
102
RTVSPropertyOp29
 70
     1
102
RTVSPropertyOp30
 70
     1
102
RTVSPropertyOp31
 70
     1
102
RTVSPropertyOp32
 70
     1
  0
XRECORD
  5
211
102
{ACAD_REACTORS
330
210
102
}
330
210
100
AcDbXrecord
280
     1
102
RTVSPropertyOp0
 70
     1
102
RTVSPropertyOp1
 70
     1
102
RTVSPropertyOp2
 70
     1
102
RTVSPropertyOp3
 70
     1
102
RTVSPropertyOp4
 70
     1
102
RTVSPropertyOp5
 70
     1
102
RTVSPropertyOp6
 70
     1
102
RTVSPropertyOp7
 70
     1
102
RTVSPropertyOp8
 70
     1
102
RTVSPropertyOp9
 70
     1
102
RTVSPropertyOp10
 70
     1
102
RTVSPropertyOp11
 70
     1
102
RTVSPropertyOp12
 70
     1
102
RTVSPropertyOp13
 70
     1
102
RTVSPropertyOp14
 70
     1
102
RTVSPropertyOp15
 70
     1
102
RTVSPropertyOp16
 70
     1
102
RTVSPropertyOp17
 70
     1
102
RTVSPropertyOp18
 70
     1
102
RTVSPropertyOp19
 70
     1
102
RTVSPropertyOp20
 70
     1
102
RTVSPropertyOp21
 70
     1
102
RTVSPropertyOp22
 70
     1
102
RTVSPropertyOp23
 70
     1
102
RTVSPropertyOp24
 70
     1
102
RTVSPropertyOp25
 70
     1
102
RTVSPropertyOp26
 70
     1
102
RTVSPropertyOp27
 70
     1
102
RTVSPropertyOp28
 70
     1
102
RTVSPropertyOp29
 70
     1
102
RTVSPropertyOp30
 70
     1
102
RTVSPropertyOp31
 70
     1
102
RTVSPropertyOp32
 70
     1
  0
XRECORD
  5
207
102
{ACAD_REACTORS
330
206
102
}
330
206
100
AcDbXrecord
280
     1
102
RTVSPropertyOp0
 70
     1
102
RTVSPropertyOp1
 70
     1
102
RTVSPropertyOp2
 70
     1
102
RTVSPropertyOp3
 70
     1
102
RTVSPropertyOp4
 70
     1
102
RTVSPropertyOp5
 70
     1
102
RTVSPropertyOp6
 70
     1
102
RTVSPropertyOp7
 70
     1
102
RTVSPropertyOp8
 70
     1
102
RTVSPropertyOp9
 70
     1
102
RTVSPropertyOp10
 70
     1
102
RTVSPropertyOp11
 70
     1
102
RTVSPropertyOp12
 70
     1
102
RTVSPropertyOp13
 70
     1
102
RTVSPropertyOp14
 70
     1
102
RTVSPropertyOp15
 70
     1
102
RTVSPropertyOp16
 70
     1
102
RTVSPropertyOp17
 70
     1
102
RTVSPropertyOp18
 70
     1
102
RTVSPropertyOp19
 70
     1
102
RTVSPropertyOp20
 70
     1
102
RTVSPropertyOp21
 70
     1
102
RTVSPropertyOp22
 70
     1
102
RTVSPropertyOp23
 70
     1
102
RTVSPropertyOp24
 70
     1
102
RTVSPropertyOp25
 70
     1
102
RTVSPropertyOp26
 70
     1
102
RTVSPropertyOp27
 70
     1
102
RTVSPropertyOp28
 70
     1
102
RTVSPropertyOp29
 70
     1
102
RTVSPropertyOp30
 70
     1
102
RTVSPropertyOp31
 70
     1
102
RTVSPropertyOp32
 70
     1
  0
XRECORD
  5
20F
102
{ACAD_REACTORS
330
20E
102
}
330
20E
100
AcDbXrecord
280
     1
102
RTVSPropertyOp0
 70
     1
102
RTVSPropertyOp1
 70
     1
102
RTVSPropertyOp2
 70
     1
102
RTVSPropertyOp3
 70
     1
102
RTVSPropertyOp4
 70
     1
102
RTVSPropertyOp5
 70
     1
102
RTVSPropertyOp6
 70
     1
102
RTVSPropertyOp7
 70
     1
102
RTVSPropertyOp8
 70
     1
102
RTVSPropertyOp9
 70
     1
102
RTVSPropertyOp10
 70
     1
102
RTVSPropertyOp11
 70
     1
102
RTVSPropertyOp12
 70
     1
102
RTVSPropertyOp13
 70
     1
102
RTVSPropertyOp14
 70
     1
102
RTVSPropertyOp15
 70
     1
102
RTVSPropertyOp16
 70
     1
102
RTVSPropertyOp17
 70
     1
102
RTVSPropertyOp18
 70
     1
102
RTVSPropertyOp19
 70
     1
102
RTVSPropertyOp20
 70
     1
102
RTVSPropertyOp21
 70
     1
102
RTVSPropertyOp22
 70
     1
102
RTVSPropertyOp23
 70
     1
102
RTVSPropertyOp24
 70
     1
102
RTVSPropertyOp25
 70
     1
102
RTVSPropertyOp26
 70
     1
102
RTVSPropertyOp27
 70
     1
102
RTVSPropertyOp28
 70
     1
102
RTVSPropertyOp29
 70
     1
102
RTVSPropertyOp30
 70
     1
102
RTVSPropertyOp31
 70
     1
102
RTVSPropertyOp32
 70
     1
  0
ENDSEC
  0
EOF
