ISO-10303-21;
HEADER;
FILE_DESCRIPTION( ( 'Unknown' ), '1' );
FILE_NAME( 'C:/Users/bkuehnle/Desktop/749022500-A.stp', 'Unknown', ( 'Unknown' ), ( 'Unknown' ), 'PSStep 15.0.49', 'Unknown', '  ' );
FILE_SCHEMA( ( 'AUTOMOTIVE_DESIGN { 1 0 10303 214 1 1 1 1 }' ) );
ENDSEC;
DATA;
#1 = MECHANICAL_DESIGN_GEOMETRIC_PRESENTATION_REPRESENTATION( ' ', ( #10, #11, #12, #13, #14, #15 ), #6 );
#2 = PRODUCT_DEFINITION_CONTEXT( '', #16, 'design' );
#3 = APPLICATION_PROTOCOL_DEFINITION( 'international standard', 'automotive_design', 2001, #16 );
#4 = PRODUCT_CATEGORY_RELATIONSHIP( 'NONE', 'NONE', #17, #18 );
#5 = SHAPE_DEFINITION_REPRESENTATION( #19, #20 );
#6 =  ( GEOMETRIC_REPRESENTATION_CONTEXT( 3 )GLOBAL_UNCERTAINTY_ASSIGNED_CONTEXT( ( #23 ) )GLOBAL_UNIT_ASSIGNED_CONTEXT( ( #25, #26, #27 ) )REPRESENTATION_CONTEXT( 'NONE', 'WORKSPACE' ) );
#10 = STYLED_ITEM( '', ( #29 ), #30 );
#11 = STYLED_ITEM( '', ( #31 ), #32 );
#12 = STYLED_ITEM( '', ( #33 ), #34 );
#13 = STYLED_ITEM( '', ( #35 ), #36 );
#14 = STYLED_ITEM( '', ( #37 ), #38 );
#15 = STYLED_ITEM( '', ( #39 ), #40 );
#16 = APPLICATION_CONTEXT( 'core data for automotive mechanical design processes' );
#17 = PRODUCT_CATEGORY( 'part', 'NONE' );
#18 = PRODUCT_RELATED_PRODUCT_CATEGORY( 'detail', ' ', ( #41 ) );
#19 = PRODUCT_DEFINITION_SHAPE( 'NONE', 'NONE', #42 );
#20 = ADVANCED_BREP_SHAPE_REPRESENTATION( '1', ( #43, #44 ), #6 );
#23 = UNCERTAINTY_MEASURE_WITH_UNIT( LENGTH_MEASURE( 0.00100000000000000 ), #25, '', '' );
#25 =  ( CONVERSION_BASED_UNIT( 'MILLIMETRE', #47 )LENGTH_UNIT(  )NAMED_UNIT( #50 ) );
#26 =  ( NAMED_UNIT( #52 )PLANE_ANGLE_UNIT(  )SI_UNIT( $, .RADIAN. ) );
#27 =  ( NAMED_UNIT( #52 )SI_UNIT( $, .STERADIAN. )SOLID_ANGLE_UNIT(  ) );
#29 = PRESENTATION_STYLE_ASSIGNMENT( ( #58 ) );
#30 = ADVANCED_FACE( '', ( #59, #60 ), #61, .F. );
#31 = PRESENTATION_STYLE_ASSIGNMENT( ( #62 ) );
#32 = ADVANCED_FACE( '', ( #63, #64, #65 ), #66, .T. );
#33 = PRESENTATION_STYLE_ASSIGNMENT( ( #67 ) );
#34 = ADVANCED_FACE( '', ( #68, #69 ), #70, .T. );
#35 = PRESENTATION_STYLE_ASSIGNMENT( ( #71 ) );
#36 = ADVANCED_FACE( '', ( #72, #73 ), #74, .F. );
#37 = PRESENTATION_STYLE_ASSIGNMENT( ( #75 ) );
#38 = ADVANCED_FACE( '', ( #76, #77 ), #78, .F. );
#39 = PRESENTATION_STYLE_ASSIGNMENT( ( #79 ) );
#40 = ADVANCED_FACE( '', ( #80, #81, #82 ), #83, .F. );
#41 = PRODUCT( '1', '1', 'PART-1-DESC', ( #84 ) );
#42 = PRODUCT_DEFINITION( 'NONE', 'NONE', #85, #2 );
#43 = MANIFOLD_SOLID_BREP( '1', #86 );
#44 = AXIS2_PLACEMENT_3D( '', #87, #88, #89 );
#47 = LENGTH_MEASURE_WITH_UNIT( LENGTH_MEASURE( 1.00000000000000 ), #90 );
#50 = DIMENSIONAL_EXPONENTS( 1.00000000000000, 0.000000000000000, 0.000000000000000, 0.000000000000000, 0.000000000000000, 0.000000000000000, 0.000000000000000 );
#52 = DIMENSIONAL_EXPONENTS( 0.000000000000000, 0.000000000000000, 0.000000000000000, 0.000000000000000, 0.000000000000000, 0.000000000000000, 0.000000000000000 );
#58 = SURFACE_STYLE_USAGE( .BOTH., #91 );
#59 = FACE_OUTER_BOUND( '', #92, .T. );
#60 = FACE_OUTER_BOUND( '', #93, .T. );
#61 = CYLINDRICAL_SURFACE( '', #94, 1.62100000000000 );
#62 = SURFACE_STYLE_USAGE( .BOTH., #95 );
#63 = FACE_BOUND( '', #96, .T. );
#64 = FACE_OUTER_BOUND( '', #97, .T. );
#65 = FACE_OUTER_BOUND( '', #98, .T. );
#66 = CYLINDRICAL_SURFACE( '', #99, 14.7000000000000 );
#67 = SURFACE_STYLE_USAGE( .BOTH., #100 );
#68 = FACE_BOUND( '', #101, .T. );
#69 = FACE_OUTER_BOUND( '', #102, .T. );
#70 = PLANE( '', #103 );
#71 = SURFACE_STYLE_USAGE( .BOTH., #104 );
#72 = FACE_BOUND( '', #105, .T. );
#73 = FACE_OUTER_BOUND( '', #106, .T. );
#74 = PLANE( '', #107 );
#75 = SURFACE_STYLE_USAGE( .BOTH., #108 );
#76 = FACE_OUTER_BOUND( '', #109, .T. );
#77 = FACE_BOUND( '', #110, .T. );
#78 = CONICAL_SURFACE( '', #111, 2.15000000000000, 0.785398163397452 );
#79 = SURFACE_STYLE_USAGE( .BOTH., #112 );
#80 = FACE_OUTER_BOUND( '', #113, .T. );
#81 = FACE_OUTER_BOUND( '', #114, .T. );
#82 = FACE_BOUND( '', #115, .T. );
#83 = CYLINDRICAL_SURFACE( '', #116, 11.2500000000000 );
#84 = PRODUCT_CONTEXT( '', #16, 'mechanical' );
#85 = PRODUCT_DEFINITION_FORMATION_WITH_SPECIFIED_SOURCE( ' ', 'NONE', #41, .NOT_KNOWN. );
#86 = CLOSED_SHELL( '', ( #34, #32, #36, #40, #38, #30 ) );
#87 = CARTESIAN_POINT( '', ( 0.000000000000000, 0.000000000000000, 0.000000000000000 ) );
#88 = DIRECTION( '', ( 0.000000000000000, 0.000000000000000, 1.00000000000000 ) );
#89 = DIRECTION( '', ( 1.00000000000000, 0.000000000000000, 0.000000000000000 ) );
#90 =  ( LENGTH_UNIT(  )NAMED_UNIT( #50 )SI_UNIT( .MILLI., .METRE. ) );
#91 = SURFACE_SIDE_STYLE( '', ( #118 ) );
#92 = EDGE_LOOP( '', ( #119 ) );
#93 = EDGE_LOOP( '', ( #120 ) );
#94 = AXIS2_PLACEMENT_3D( '', #121, #122, #123 );
#95 = SURFACE_SIDE_STYLE( '', ( #124 ) );
#96 = EDGE_LOOP( '', ( #125 ) );
#97 = EDGE_LOOP( '', ( #126 ) );
#98 = EDGE_LOOP( '', ( #127 ) );
#99 = AXIS2_PLACEMENT_3D( '', #128, #129, #130 );
#100 = SURFACE_SIDE_STYLE( '', ( #131 ) );
#101 = EDGE_LOOP( '', ( #132 ) );
#102 = EDGE_LOOP( '', ( #133 ) );
#103 = AXIS2_PLACEMENT_3D( '', #134, #135, #136 );
#104 = SURFACE_SIDE_STYLE( '', ( #137 ) );
#105 = EDGE_LOOP( '', ( #138 ) );
#106 = EDGE_LOOP( '', ( #139 ) );
#107 = AXIS2_PLACEMENT_3D( '', #140, #141, #142 );
#108 = SURFACE_SIDE_STYLE( '', ( #143 ) );
#109 = EDGE_LOOP( '', ( #144 ) );
#110 = EDGE_LOOP( '', ( #145 ) );
#111 = AXIS2_PLACEMENT_3D( '', #146, #147, #148 );
#112 = SURFACE_SIDE_STYLE( '', ( #149 ) );
#113 = EDGE_LOOP( '', ( #150 ) );
#114 = EDGE_LOOP( '', ( #151 ) );
#115 = EDGE_LOOP( '', ( #152 ) );
#116 = AXIS2_PLACEMENT_3D( '', #153, #154, #155 );
#118 = SURFACE_STYLE_FILL_AREA( #156 );
#119 = ORIENTED_EDGE( '', *, *, #157, .F. );
#120 = ORIENTED_EDGE( '', *, *, #158, .T. );
#121 = CARTESIAN_POINT( '', ( 3.00000000000000, 0.000000000000000, 42.0085705541143 ) );
#122 = DIRECTION( '', ( -0.000000000000000, -0.000000000000000, 1.00000000000000 ) );
#123 = DIRECTION( '', ( -1.00000000000000, 0.000000000000000, 0.000000000000000 ) );
#124 = SURFACE_STYLE_FILL_AREA( #159 );
#125 = ORIENTED_EDGE( '', *, *, #160, .F. );
#126 = ORIENTED_EDGE( '', *, *, #161, .F. );
#127 = ORIENTED_EDGE( '', *, *, #162, .T. );
#128 = CARTESIAN_POINT( '', ( 6.00000000000000, 0.000000000000000, 0.000000000000000 ) );
#129 = DIRECTION( '', ( 1.00000000000000, -0.000000000000000, -0.000000000000000 ) );
#130 = DIRECTION( '', ( 0.000000000000000, 0.000000000000000, 1.00000000000000 ) );
#131 = SURFACE_STYLE_FILL_AREA( #163 );
#132 = ORIENTED_EDGE( '', *, *, #164, .F. );
#133 = ORIENTED_EDGE( '', *, *, #161, .T. );
#134 = CARTESIAN_POINT( '', ( 0.000000000000000, 0.000000000000000, 0.000000000000000 ) );
#135 = DIRECTION( '', ( -1.00000000000000, 6.12303176911189E-017, 0.000000000000000 ) );
#136 = DIRECTION( '', ( -6.12303176911189E-017, -1.00000000000000, 0.000000000000000 ) );
#137 = SURFACE_STYLE_FILL_AREA( #165 );
#138 = ORIENTED_EDGE( '', *, *, #166, .T. );
#139 = ORIENTED_EDGE( '', *, *, #162, .F. );
#140 = CARTESIAN_POINT( '', ( 6.00000000000000, 0.000000000000000, 0.000000000000000 ) );
#141 = DIRECTION( '', ( -1.00000000000000, 6.12303176911189E-017, 0.000000000000000 ) );
#142 = DIRECTION( '', ( -6.12303176911189E-017, -1.00000000000000, 0.000000000000000 ) );
#143 = SURFACE_STYLE_FILL_AREA( #167 );
#144 = ORIENTED_EDGE( '', *, *, #160, .T. );
#145 = ORIENTED_EDGE( '', *, *, #157, .T. );
#146 = CARTESIAN_POINT( '', ( 3.00000000000000, 1.68518870133883E-031, 14.5419221563038 ) );
#147 = DIRECTION( '', ( -0.000000000000000, -0.000000000000000, 1.00000000000000 ) );
#148 = DIRECTION( '', ( 1.00000000000000, 0.000000000000000, 0.000000000000000 ) );
#149 = SURFACE_STYLE_FILL_AREA( #168 );
#150 = ORIENTED_EDGE( '', *, *, #164, .T. );
#151 = ORIENTED_EDGE( '', *, *, #166, .F. );
#152 = ORIENTED_EDGE( '', *, *, #158, .F. );
#153 = CARTESIAN_POINT( '', ( 6.00000000000000, 0.000000000000000, -0.550000000000000 ) );
#154 = DIRECTION( '', ( 1.00000000000000, -0.000000000000000, -0.000000000000000 ) );
#155 = DIRECTION( '', ( 0.000000000000000, 0.000000000000000, 1.00000000000000 ) );
#156 = FILL_AREA_STYLE( '', ( #169 ) );
#157 = EDGE_CURVE( '', #170, #170, #171, .T. );
#158 = EDGE_CURVE( '', #172, #172, #173, .T. );
#159 = FILL_AREA_STYLE( '', ( #174 ) );
#160 = EDGE_CURVE( '', #175, #175, #176, .T. );
#161 = EDGE_CURVE( '', #177, #177, #178, .T. );
#162 = EDGE_CURVE( '', #179, #179, #180, .T. );
#163 = FILL_AREA_STYLE( '', ( #181 ) );
#164 = EDGE_CURVE( '', #182, #182, #183, .T. );
#165 = FILL_AREA_STYLE( '', ( #184 ) );
#166 = EDGE_CURVE( '', #185, #185, #186, .T. );
#167 = FILL_AREA_STYLE( '', ( #187 ) );
#168 = FILL_AREA_STYLE( '', ( #188 ) );
#169 = FILL_AREA_STYLE_COLOUR( '', #189 );
#170 = VERTEX_POINT( '', #190 );
#171 = CIRCLE( '', #191, 1.62100000000000 );
#172 = VERTEX_POINT( '', #192 );
#173 = B_SPLINE_CURVE_WITH_KNOTS( '', 3, ( #193, #194, #195, #196, #197, #198, #199, #200, #201, #202, #203, #204, #205, #206, #207, #208, #209, #210, #211, #212, #213, #214, #215, #216, #217, #218, #219, #220, #221, #222, #223, #224, #225, #226, #227, #228, #229, #230, #231, #232, #233, #234, #235, #236, #237, #238, #239, #240, #241, #242, #243, #244, #245, #246 ), .UNSPECIFIED., .T., .F., ( 2, 2, 2, 2, 2, 2, 2, 2, 2, 2, 2, 2, 2, 2, 2, 2, 2, 2, 2, 2, 2, 2, 2, 2, 2, 2, 2, 2, 2 ), ( -0.000634246371846350, 0.000000000000000, 0.000317123185923176, 0.000634246371846352, 0.000951369557769527, 0.00126849274369270, 0.00190273911553905, 0.00253698548738540, 0.00285410867330858, 0.00317123185923175, 0.00348835504515493, 0.00380547823107810, 0.00412260141700128, 0.00443972460292445, 0.00475684778884763, 0.00507397097477080, 0.00570821734661715, 0.00634246371846350, 0.00665958690438667, 0.00697671009030985, 0.00729383327623302, 0.00761095646215620, 0.00792807964807937, 0.00824520283400255, 0.00856232601992572, 0.00887944920584890, 0.00951369557769524, 0.0101479419495416, 0.0104650651354648 ), .UNSPECIFIED. );
#174 = FILL_AREA_STYLE_COLOUR( '', #247 );
#175 = VERTEX_POINT( '', #248 );
#176 = B_SPLINE_CURVE_WITH_KNOTS( '', 3, ( #249, #250, #251, #252, #253, #254, #255, #256, #257, #258, #259, #260, #261, #262, #263, #264, #265, #266, #267, #268, #269, #270, #271, #272, #273, #274, #275, #276, #277, #278, #279, #280, #281, #282, #283, #284, #285, #286, #287, #288, #289, #290, #291, #292, #293, #294, #295, #296, #297, #298, #299, #300, #301, #302 ), .UNSPECIFIED., .T., .F., ( 2, 2, 2, 2, 2, 2, 2, 2, 2, 2, 2, 2, 2, 2, 2, 2, 2, 2, 2, 2, 2, 2, 2, 2, 2, 2, 2, 2, 2 ), ( -0.000871150487131320, 0.000000000000000, 0.000871150487131324, 0.00130672573069699, 0.00174230097426265, 0.00217787621782831, 0.00261345146139397, 0.00304902670495963, 0.00348460194852529, 0.00435575243565662, 0.00479132767922228, 0.00522690292278794, 0.00566247816635360, 0.00609805340991926, 0.00653362865348492, 0.00696920389705058, 0.00740477914061624, 0.00784035438418190, 0.00871150487131322, 0.00958265535844454, 0.0100182306020102, 0.0104538058455759, 0.0108893810891415, 0.0113249563327072, 0.0117605315762728, 0.0121961068198385, 0.0130672573069698, 0.0139384077941011, 0.0148095582812325 ), .UNSPECIFIED. );
#177 = VERTEX_POINT( '', #303 );
#178 = CIRCLE( '', #304, 14.7000000000000 );
#179 = VERTEX_POINT( '', #305 );
#180 = CIRCLE( '', #306, 14.7000000000000 );
#181 = FILL_AREA_STYLE_COLOUR( '', #307 );
#182 = VERTEX_POINT( '', #308 );
#183 = CIRCLE( '', #309, 11.2500000000000 );
#184 = FILL_AREA_STYLE_COLOUR( '', #310 );
#185 = VERTEX_POINT( '', #311 );
#186 = CIRCLE( '', #312, 11.2500000000000 );
#187 = FILL_AREA_STYLE_COLOUR( '', #313 );
#188 = FILL_AREA_STYLE_COLOUR( '', #314 );
#189 = COLOUR_RGB( '', 0.184313729405403, 0.749019622802734, 0.580392181873322 );
#190 = CARTESIAN_POINT( '', ( 1.37900000000000, 1.68518870133883E-031, 14.0129221563038 ) );
#191 = AXIS2_PLACEMENT_3D( '', #315, #316, #317 );
#192 = CARTESIAN_POINT( '', ( 4.62100000000000, 0.000000000000000, 10.7000000000000 ) );
#193 = CARTESIAN_POINT( '', ( 4.62100000000000, 0.214480795777771, 10.7000000000000 ) );
#194 = CARTESIAN_POINT( '', ( 4.62100000000000, -0.107240397888886, 10.7000000000000 ) );
#195 = CARTESIAN_POINT( '', ( 4.61046307547345, -0.212661074792980, 10.6984680393199 ) );
#196 = CARTESIAN_POINT( '', ( 4.56920331047121, -0.420020262132336, 10.6926349644437 ) );
#197 = CARTESIAN_POINT( '', ( 4.53796957168724, -0.523043872691066, 10.6882641834010 ) );
#198 = CARTESIAN_POINT( '', ( 4.45655735039741, -0.719281572959296, 10.6774124698202 ) );
#199 = CARTESIAN_POINT( '', ( 4.40675843008982, -0.812332258892292, 10.6709812006051 ) );
#200 = CARTESIAN_POINT( '', ( 4.28912923850238, -0.988432489300144, 10.6568418395758 ) );
#201 = CARTESIAN_POINT( '', ( 4.22075547546016, -1.07170229880054, 10.6490886109527 ) );
#202 = CARTESIAN_POINT( '', ( 3.99674387595216, -1.29566108154610, 10.6261481958080 ) );
#203 = CARTESIAN_POINT( '', ( 3.81612082106195, -1.41638612177939, 10.6107800467245 ) );
#204 = CARTESIAN_POINT( '', ( 3.42615195456037, -1.57816265073169, 10.5890557743988 ) );
#205 = CARTESIAN_POINT( '', ( 3.21264789826241, -1.62088033007962, 10.5826208491138 ) );
#206 = CARTESIAN_POINT( '', ( 2.89504735145217, -1.62105944827184, 10.5825947680138 ) );
#207 = CARTESIAN_POINT( '', ( 2.78749213228005, -1.61050493245815, 10.5841461862669 ) );
#208 = CARTESIAN_POINT( '', ( 2.57949182183347, -1.56909483569668, 10.5900573980220 ) );
#209 = CARTESIAN_POINT( '', ( 2.47838021781370, -1.53845739989433, 10.5943856018071 ) );
#210 = CARTESIAN_POINT( '', ( 2.28195655615564, -1.45717259829090, 10.6053049994989 ) );
#211 = CARTESIAN_POINT( '', ( 2.18723265652692, -1.40647992210329, 10.6118905579771 ) );
#212 = CARTESIAN_POINT( '', ( 2.01174505947454, -1.28923570320675, 10.6260394550626 ) );
#213 = CARTESIAN_POINT( '', ( 1.92975900093909, -1.22214604119958, 10.6336766224190 ) );
#214 = CARTESIAN_POINT( '', ( 1.77860509964637, -1.07109814652106, 10.6491523117324 ) );
#215 = CARTESIAN_POINT( '', ( 1.71163282049377, -0.989387154696461, 10.6567547937074 ) );
#216 = CARTESIAN_POINT( '', ( 1.59423256193083, -0.813999288188659, 10.6708575923140 ) );
#217 = CARTESIAN_POINT( '', ( 1.54339494495728, -0.719178159541861, 10.6774187362308 ) );
#218 = CARTESIAN_POINT( '', ( 1.46202622418680, -0.523022156747598, 10.6882648361471 ) );
#219 = CARTESIAN_POINT( '', ( 1.43130131759233, -0.421986381628270, 10.6925642260786 ) );
#220 = CARTESIAN_POINT( '', ( 1.38969237924407, -0.214003338765166, 10.6984454683649 ) );
#221 = CARTESIAN_POINT( '', ( 1.37904056678464, -0.106473843372702, 10.6999941547775 ) );
#222 = CARTESIAN_POINT( '', ( 1.37891922145634, 0.211089467396841, 10.7000116392898 ) );
#223 = CARTESIAN_POINT( '', ( 1.42141901238372, 0.424647937430864, 10.6936814351688 ) );
#224 = CARTESIAN_POINT( '', ( 1.58292020153066, 0.814940887425565, 10.6721463827704 ) );
#225 = CARTESIAN_POINT( '', ( 1.70341947304264, 0.995577994441591, 10.6568696968768 ) );
#226 = CARTESIAN_POINT( '', ( 1.92734624605627, 1.21992574594759, 10.6339139911223 ) );
#227 = CARTESIAN_POINT( '', ( 2.01061670489998, 1.28839063657079, 10.6261379849835 ) );
#228 = CARTESIAN_POINT( '', ( 2.18643923874967, 1.40604005091607, 10.6119470553759 ) );
#229 = CARTESIAN_POINT( '', ( 2.27942309052965, 1.45592232649588, 10.6054688932314 ) );
#230 = CARTESIAN_POINT( '', ( 2.47572770728563, 1.53755632948619, 10.5945106030861 ) );
#231 = CARTESIAN_POINT( '', ( 2.57859857962227, 1.56883043003670, 10.5900946577866 ) );
#232 = CARTESIAN_POINT( '', ( 2.78584640052853, 1.61026280809653, 10.5841812268130 ) );
#233 = CARTESIAN_POINT( '', ( 2.89144507840979, 1.62090699787004, 10.5826169660586 ) );
#234 = CARTESIAN_POINT( '', ( 3.10575941024841, 1.62109179687315, 10.5825900577911 ) );
#235 = CARTESIAN_POINT( '', ( 3.21116363143704, 1.61066168583020, 10.5841231990840 ) );
#236 = CARTESIAN_POINT( '', ( 3.41860776405403, 1.56958232830162, 10.5899884108227 ) );
#237 = CARTESIAN_POINT( '', ( 3.52174272946589, 1.53840736441795, 10.5943923401829 ) );
#238 = CARTESIAN_POINT( '', ( 3.71794247731528, 1.45721353751339, 10.6052994830668 ) );
#239 = CARTESIAN_POINT( '', ( 3.81104431066762, 1.40750610434987, 10.6117620071112 ) );
#240 = CARTESIAN_POINT( '', ( 3.98735246364352, 1.28996179020370, 10.6259564743688 ) );
#241 = CARTESIAN_POINT( '', ( 4.07063238417152, 1.22169120293525, 10.6337199286093 ) );
#242 = CARTESIAN_POINT( '', ( 4.29472455025539, 0.997946756310514, 10.6566536316236 ) );
#243 = CARTESIAN_POINT( '', ( 4.41565105138461, 0.817398395030092, 10.6719638063286 ) );
#244 = CARTESIAN_POINT( '', ( 4.57778567757113, 0.427551623942097, 10.6935675573018 ) );
#245 = CARTESIAN_POINT( '', ( 4.62100000000000, 0.214480795777771, 10.7000000000000 ) );
#246 = CARTESIAN_POINT( '', ( 4.62100000000000, -0.107240397888886, 10.7000000000000 ) );
#247 = COLOUR_RGB( '', 0.600000023841858, 0.666666686534882, 0.666666686534882 );
#248 = CARTESIAN_POINT( '', ( 2.63489791913996, -2.12282404390749, 14.5459141379140 ) );
#249 = CARTESIAN_POINT( '', ( 2.34365048833893, -2.07919362295119, 14.5522815415556 ) );
#250 = CARTESIAN_POINT( '', ( 2.92614534994099, -2.16645446486379, 14.5395467342724 ) );
#251 = CARTESIAN_POINT( '', ( 3.21837557969057, -2.15786235328597, 14.5408850460716 ) );
#252 = CARTESIAN_POINT( '', ( 3.64911191800820, -2.06745873887487, 14.5539184183419 ) );
#253 = CARTESIAN_POINT( '', ( 3.78801856231474, -2.02494997993116, 14.5599665288284 ) );
#254 = CARTESIAN_POINT( '', ( 4.05665238232042, -1.91553349073099, 14.5747651503451 ) );
#255 = CARTESIAN_POINT( '', ( 4.18762263091003, -1.84778860750177, 14.5836214454130 ) );
#256 = CARTESIAN_POINT( '', ( 4.43314879450193, -1.68973226025713, 14.6027785742909 ) );
#257 = CARTESIAN_POINT( '', ( 4.54699477324321, -1.60025838798721, 14.6129840719165 ) );
#258 = CARTESIAN_POINT( '', ( 4.75660688211719, -1.40000959702234, 14.6335266946370 ) );
#259 = CARTESIAN_POINT( '', ( 4.85330127545344, -1.28768391667969, 14.6439822942197 ) );
#260 = CARTESIAN_POINT( '', ( 5.01960897156382, -1.04888122686050, 14.6630213624149 ) );
#261 = CARTESIAN_POINT( '', ( 5.08990665542792, -0.922297196986526, 14.6716530255180 ) );
#262 = CARTESIAN_POINT( '', ( 5.20371684150621, -0.654097483825132, 14.6860543068046 ) );
#263 = CARTESIAN_POINT( '', ( 5.24688416897660, -0.511831508826806, 14.6917814580560 ) );
#264 = CARTESIAN_POINT( '', ( 5.32732533428283, -0.0833348632090051, 14.7025409681253 ) );
#265 = CARTESIAN_POINT( '', ( 5.31730554199762, 0.217175774615014, 14.7011053046078 ) );
#266 = CARTESIAN_POINT( '', ( 5.20846747979330, 0.640299702952902, 14.6867263852078 ) );
#267 = CARTESIAN_POINT( '', ( 5.15604359593238, 0.779418061315305, 14.6799019115007 ) );
#268 = CARTESIAN_POINT( '', ( 5.02515779263598, 1.03978324287656, 14.6637602085352 ) );
#269 = CARTESIAN_POINT( '', ( 4.94666875057123, 1.16228101070455, 14.6544335409450 ) );
#270 = CARTESIAN_POINT( '', ( 4.76401973353152, 1.39222880749656, 14.6343779676963 ) );
#271 = CARTESIAN_POINT( '', ( 4.66193601138345, 1.49688781369693, 14.6238929091784 ) );
#272 = CARTESIAN_POINT( '', ( 4.44009923093156, 1.68463790111499, 14.6034554845091 ) );
#273 = CARTESIAN_POINT( '', ( 4.31865029807362, 1.76883152009693, 14.5933698338569 ) );
#274 = CARTESIAN_POINT( '', ( 4.06419483935770, 1.91202954515115, 14.5752993476183 ) );
#275 = CARTESIAN_POINT( '', ( 3.93152080241294, 1.97124271414239, 14.5673083988998 ) );
#276 = CARTESIAN_POINT( '', ( 3.65556879044546, 2.06566715377137, 14.5542190115631 ) );
#277 = CARTESIAN_POINT( '', ( 3.51150398541450, 2.10074358167395, 14.5491359870771 ) );
#278 = CARTESIAN_POINT( '', ( 3.22356702434563, 2.14417293529905, 14.5427990424793 ) );
#279 = CARTESIAN_POINT( '', ( 3.07843972685006, 2.15309142636581, 14.5414653271633 ) );
#280 = CARTESIAN_POINT( '', ( 2.78583901754472, 2.14504217037399, 14.5426548689949 ) );
#281 = CARTESIAN_POINT( '', ( 2.63905824846805, 2.12779143823124, 14.5452192825994 ) );
#282 = CARTESIAN_POINT( '', ( 2.21243400240909, 2.03869387726947, 14.5580674819437 ) );
#283 = CARTESIAN_POINT( '', ( 1.93552810850848, 1.92668729855932, 14.5740435057479 ) );
#284 = CARTESIAN_POINT( '', ( 1.44798771010205, 1.61359014319330, 14.6120222728975 ) );
#285 = CARTESIAN_POINT( '', ( 1.23086294145896, 1.40790962645378, 14.6343615686409 ) );
#286 = CARTESIAN_POINT( '', ( 0.982150348013027, 1.05171640349223, 14.6628128139221 ) );
#287 = CARTESIAN_POINT( '', ( 0.910362317061717, 0.922943989250312, 14.6716188995063 ) );
#288 = CARTESIAN_POINT( '', ( 0.795958500394836, 0.653319459180645, 14.6860954791905 ) );
#289 = CARTESIAN_POINT( '', ( 0.753770729725342, 0.514392695302033, 14.6916945315907 ) );
#290 = CARTESIAN_POINT( '', ( 0.699700788842468, 0.228211052245299, 14.6989253950820 ) );
#291 = CARTESIAN_POINT( '', ( 0.688190716538588, 0.0795745847574143, 14.7005061091469 ) );
#292 = CARTESIAN_POINT( '', ( 0.697842171881366, -0.211709133528539, 14.6991969584187 ) );
#293 = CARTESIAN_POINT( '', ( 0.718429069435395, -0.355938237217416, 14.6963845846875 ) );
#294 = CARTESIAN_POINT( '', ( 0.791803616653683, -0.641514110807670, 14.6866902852681 ) );
#295 = CARTESIAN_POINT( '', ( 0.843439391674336, -0.778164707758791, 14.6799680993371 ) );
#296 = CARTESIAN_POINT( '', ( 0.974066541965625, -1.03846291831249, 14.6638534661680 ) );
#297 = CARTESIAN_POINT( '', ( 1.05419815392226, -1.16340484104484, 14.6543373717943 ) );
#298 = CARTESIAN_POINT( '', ( 1.32613293054572, -1.50566243541757, 14.6244808165181 ) );
#299 = CARTESIAN_POINT( '', ( 1.55471048762653, -1.69746747435061, 14.6023721189472 ) );
#300 = CARTESIAN_POINT( '', ( 2.06126322381151, -1.98272865907547, 14.5663809640956 ) );
#301 = CARTESIAN_POINT( '', ( 2.34365048833893, -2.07919362295119, 14.5522815415556 ) );
#302 = CARTESIAN_POINT( '', ( 2.92614534994099, -2.16645446486379, 14.5395467342724 ) );
#303 = CARTESIAN_POINT( '', ( 9.00085670059448E-016, 14.7000000000000, 0.000000000000000 ) );
#304 = AXIS2_PLACEMENT_3D( '', #318, #319, #320 );
#305 = CARTESIAN_POINT( '', ( 6.00000000000000, 14.7000000000000, 0.000000000000000 ) );
#306 = AXIS2_PLACEMENT_3D( '', #321, #322, #323 );
#307 = COLOUR_RGB( '', 0.600000023841858, 0.666666686534882, 0.666666686534882 );
#308 = CARTESIAN_POINT( '', ( 6.88841074025088E-016, 11.2500000000000, -0.550000000000000 ) );
#309 = AXIS2_PLACEMENT_3D( '', #324, #325, #326 );
#310 = COLOUR_RGB( '', 0.600000023841858, 0.666666686534882, 0.666666686534882 );
#311 = CARTESIAN_POINT( '', ( 6.00000000000000, 11.2500000000000, -0.550000000000000 ) );
#312 = AXIS2_PLACEMENT_3D( '', #327, #328, #329 );
#313 = COLOUR_RGB( '', 0.600000023841858, 0.666666686534882, 0.666666686534882 );
#314 = COLOUR_RGB( '', 0.600000023841858, 0.666666686534882, 0.666666686534882 );
#315 = CARTESIAN_POINT( '', ( 3.00000000000000, 1.68518870133883E-031, 14.0129221563038 ) );
#316 = DIRECTION( '', ( 0.000000000000000, 0.000000000000000, -1.00000000000000 ) );
#317 = DIRECTION( '', ( -1.00000000000000, 0.000000000000000, 0.000000000000000 ) );
#318 = CARTESIAN_POINT( '', ( 0.000000000000000, 0.000000000000000, 0.000000000000000 ) );
#319 = DIRECTION( '', ( -1.00000000000000, 6.12303176911189E-017, 0.000000000000000 ) );
#320 = DIRECTION( '', ( 6.12303176911189E-017, 1.00000000000000, 0.000000000000000 ) );
#321 = CARTESIAN_POINT( '', ( 6.00000000000000, 0.000000000000000, 0.000000000000000 ) );
#322 = DIRECTION( '', ( -1.00000000000000, 6.12303176911189E-017, 0.000000000000000 ) );
#323 = DIRECTION( '', ( 6.12303176911189E-017, 1.00000000000000, 0.000000000000000 ) );
#324 = CARTESIAN_POINT( '', ( 0.000000000000000, 0.000000000000000, -0.550000000000000 ) );
#325 = DIRECTION( '', ( -1.00000000000000, 6.12303176911189E-017, 0.000000000000000 ) );
#326 = DIRECTION( '', ( 6.12303176911189E-017, 1.00000000000000, 0.000000000000000 ) );
#327 = CARTESIAN_POINT( '', ( 6.00000000000000, 0.000000000000000, -0.550000000000000 ) );
#328 = DIRECTION( '', ( -1.00000000000000, 6.12303176911189E-017, 0.000000000000000 ) );
#329 = DIRECTION( '', ( 6.12303176911189E-017, 1.00000000000000, 0.000000000000000 ) );
ENDSEC;
END-ISO-10303-21;
