ISO-10303-21;
HEADER;
FILE_DESCRIPTION( ( 'Unknown' ), '1' );
FILE_NAME( 'C:/Users/bkuehnle/Desktop/749028500-A.stp', 'Unknown', ( 'Unknown' ), ( 'Unknown' ), 'PSStep 15.0.49', 'Unknown', '  ' );
FILE_SCHEMA( ( 'AUTOMOTIVE_DESIGN { 1 0 10303 214 1 1 1 1 }' ) );
ENDSEC;
DATA;
#1 = MECHANICAL_DESIGN_GEOMETRIC_PRESENTATION_REPRESENTATION( ' ', ( #10, #11, #12, #13, #14, #15 ), #6 );
#2 = PRODUCT_DEFINITION_CONTEXT( '', #16, 'design' );
#3 = APPLICATION_PROTOCOL_DEFINITION( 'international standard', 'automotive_design', 2001, #16 );
#4 = PRODUCT_CATEGORY_RELATIONSHIP( 'NONE', 'NONE', #17, #18 );
#5 = SHAPE_DEFINITION_REPRESENTATION( #19, #20 );
#6 =  ( GEOMETRIC_REPRESENTATION_CONTEXT( 3 )GLOBAL_UNCERTAINTY_ASSIGNED_CONTEXT( ( #23 ) )GLOBAL_UNIT_ASSIGNED_CONTEXT( ( #25, #26, #27 ) )REPRESENTATION_CONTEXT( 'NONE', 'WORKSPACE' ) );
#10 = STYLED_ITEM( '', ( #29 ), #30 );
#11 = STYLED_ITEM( '', ( #31 ), #32 );
#12 = STYLED_ITEM( '', ( #33 ), #34 );
#13 = STYLED_ITEM( '', ( #35 ), #36 );
#14 = STYLED_ITEM( '', ( #37 ), #38 );
#15 = STYLED_ITEM( '', ( #39 ), #40 );
#16 = APPLICATION_CONTEXT( 'core data for automotive mechanical design processes' );
#17 = PRODUCT_CATEGORY( 'part', 'NONE' );
#18 = PRODUCT_RELATED_PRODUCT_CATEGORY( 'detail', ' ', ( #41 ) );
#19 = PRODUCT_DEFINITION_SHAPE( 'NONE', 'NONE', #42 );
#20 = ADVANCED_BREP_SHAPE_REPRESENTATION( '1', ( #43, #44 ), #6 );
#23 = UNCERTAINTY_MEASURE_WITH_UNIT( LENGTH_MEASURE( 0.00100000000000000 ), #25, '', '' );
#25 =  ( CONVERSION_BASED_UNIT( 'MILLIMETRE', #47 )LENGTH_UNIT(  )NAMED_UNIT( #50 ) );
#26 =  ( NAMED_UNIT( #52 )PLANE_ANGLE_UNIT(  )SI_UNIT( $, .RADIAN. ) );
#27 =  ( NAMED_UNIT( #52 )SI_UNIT( $, .STERADIAN. )SOLID_ANGLE_UNIT(  ) );
#29 = PRESENTATION_STYLE_ASSIGNMENT( ( #58 ) );
#30 = ADVANCED_FACE( '', ( #59, #60 ), #61, .F. );
#31 = PRESENTATION_STYLE_ASSIGNMENT( ( #62 ) );
#32 = ADVANCED_FACE( '', ( #63, #64 ), #65, .F. );
#33 = PRESENTATION_STYLE_ASSIGNMENT( ( #66 ) );
#34 = ADVANCED_FACE( '', ( #67, #68, #69 ), #70, .T. );
#35 = PRESENTATION_STYLE_ASSIGNMENT( ( #71 ) );
#36 = ADVANCED_FACE( '', ( #72, #73 ), #74, .T. );
#37 = PRESENTATION_STYLE_ASSIGNMENT( ( #75 ) );
#38 = ADVANCED_FACE( '', ( #76, #77, #78 ), #79, .F. );
#39 = PRESENTATION_STYLE_ASSIGNMENT( ( #80 ) );
#40 = ADVANCED_FACE( '', ( #81, #82 ), #83, .F. );
#41 = PRODUCT( '1', '1', 'PART-1-DESC', ( #84 ) );
#42 = PRODUCT_DEFINITION( 'NONE', 'NONE', #85, #2 );
#43 = MANIFOLD_SOLID_BREP( '1', #86 );
#44 = AXIS2_PLACEMENT_3D( '', #87, #88, #89 );
#47 = LENGTH_MEASURE_WITH_UNIT( LENGTH_MEASURE( 1.00000000000000 ), #90 );
#50 = DIMENSIONAL_EXPONENTS( 1.00000000000000, 0.000000000000000, 0.000000000000000, 0.000000000000000, 0.000000000000000, 0.000000000000000, 0.000000000000000 );
#52 = DIMENSIONAL_EXPONENTS( 0.000000000000000, 0.000000000000000, 0.000000000000000, 0.000000000000000, 0.000000000000000, 0.000000000000000, 0.000000000000000 );
#58 = SURFACE_STYLE_USAGE( .BOTH., #91 );
#59 = FACE_OUTER_BOUND( '', #92, .T. );
#60 = FACE_OUTER_BOUND( '', #93, .T. );
#61 = CYLINDRICAL_SURFACE( '', #94, 1.62100000000000 );
#62 = SURFACE_STYLE_USAGE( .BOTH., #95 );
#63 = FACE_BOUND( '', #96, .T. );
#64 = FACE_OUTER_BOUND( '', #97, .T. );
#65 = PLANE( '', #98 );
#66 = SURFACE_STYLE_USAGE( .BOTH., #99 );
#67 = FACE_BOUND( '', #100, .T. );
#68 = FACE_OUTER_BOUND( '', #101, .T. );
#69 = FACE_OUTER_BOUND( '', #102, .T. );
#70 = CYLINDRICAL_SURFACE( '', #103, 17.7250000000000 );
#71 = SURFACE_STYLE_USAGE( .BOTH., #104 );
#72 = FACE_BOUND( '', #105, .T. );
#73 = FACE_OUTER_BOUND( '', #106, .T. );
#74 = PLANE( '', #107 );
#75 = SURFACE_STYLE_USAGE( .BOTH., #108 );
#76 = FACE_OUTER_BOUND( '', #109, .T. );
#77 = FACE_OUTER_BOUND( '', #110, .T. );
#78 = FACE_BOUND( '', #111, .T. );
#79 = CYLINDRICAL_SURFACE( '', #112, 14.2500000000000 );
#80 = SURFACE_STYLE_USAGE( .BOTH., #113 );
#81 = FACE_OUTER_BOUND( '', #114, .T. );
#82 = FACE_BOUND( '', #115, .T. );
#83 = CONICAL_SURFACE( '', #116, 2.17000000000000, 0.785398163397448 );
#84 = PRODUCT_CONTEXT( '', #16, 'mechanical' );
#85 = PRODUCT_DEFINITION_FORMATION_WITH_SPECIFIED_SOURCE( ' ', 'NONE', #41, .NOT_KNOWN. );
#86 = CLOSED_SHELL( '', ( #36, #34, #32, #38, #40, #30 ) );
#87 = CARTESIAN_POINT( '', ( 0.000000000000000, 0.000000000000000, 0.000000000000000 ) );
#88 = DIRECTION( '', ( 0.000000000000000, 0.000000000000000, 1.00000000000000 ) );
#89 = DIRECTION( '', ( 1.00000000000000, 0.000000000000000, 0.000000000000000 ) );
#90 =  ( LENGTH_UNIT(  )NAMED_UNIT( #50 )SI_UNIT( .MILLI., .METRE. ) );
#91 = SURFACE_SIDE_STYLE( '', ( #118 ) );
#92 = EDGE_LOOP( '', ( #119 ) );
#93 = EDGE_LOOP( '', ( #120 ) );
#94 = AXIS2_PLACEMENT_3D( '', #121, #122, #123 );
#95 = SURFACE_SIDE_STYLE( '', ( #124 ) );
#96 = EDGE_LOOP( '', ( #125 ) );
#97 = EDGE_LOOP( '', ( #126 ) );
#98 = AXIS2_PLACEMENT_3D( '', #127, #128, #129 );
#99 = SURFACE_SIDE_STYLE( '', ( #130 ) );
#100 = EDGE_LOOP( '', ( #131 ) );
#101 = EDGE_LOOP( '', ( #132 ) );
#102 = EDGE_LOOP( '', ( #133 ) );
#103 = AXIS2_PLACEMENT_3D( '', #134, #135, #136 );
#104 = SURFACE_SIDE_STYLE( '', ( #137 ) );
#105 = EDGE_LOOP( '', ( #138 ) );
#106 = EDGE_LOOP( '', ( #139 ) );
#107 = AXIS2_PLACEMENT_3D( '', #140, #141, #142 );
#108 = SURFACE_SIDE_STYLE( '', ( #143 ) );
#109 = EDGE_LOOP( '', ( #144 ) );
#110 = EDGE_LOOP( '', ( #145 ) );
#111 = EDGE_LOOP( '', ( #146 ) );
#112 = AXIS2_PLACEMENT_3D( '', #147, #148, #149 );
#113 = SURFACE_SIDE_STYLE( '', ( #150 ) );
#114 = EDGE_LOOP( '', ( #151 ) );
#115 = EDGE_LOOP( '', ( #152 ) );
#116 = AXIS2_PLACEMENT_3D( '', #153, #154, #155 );
#118 = SURFACE_STYLE_FILL_AREA( #156 );
#119 = ORIENTED_EDGE( '', *, *, #157, .F. );
#120 = ORIENTED_EDGE( '', *, *, #158, .T. );
#121 = CARTESIAN_POINT( '', ( 3.00000000000000, 0.000000000000000, 50.4916329702259 ) );
#122 = DIRECTION( '', ( -0.000000000000000, -0.000000000000000, 1.00000000000000 ) );
#123 = DIRECTION( '', ( -1.00000000000000, 0.000000000000000, 0.000000000000000 ) );
#124 = SURFACE_STYLE_FILL_AREA( #159 );
#125 = ORIENTED_EDGE( '', *, *, #160, .T. );
#126 = ORIENTED_EDGE( '', *, *, #161, .F. );
#127 = CARTESIAN_POINT( '', ( 6.00000000000000, 0.000000000000000, 0.000000000000000 ) );
#128 = DIRECTION( '', ( -1.00000000000000, 6.12303176911189E-017, 0.000000000000000 ) );
#129 = DIRECTION( '', ( -6.12303176911189E-017, -1.00000000000000, 0.000000000000000 ) );
#130 = SURFACE_STYLE_FILL_AREA( #162 );
#131 = ORIENTED_EDGE( '', *, *, #163, .F. );
#132 = ORIENTED_EDGE( '', *, *, #164, .F. );
#133 = ORIENTED_EDGE( '', *, *, #161, .T. );
#134 = CARTESIAN_POINT( '', ( 6.00000000000000, 0.000000000000000, 0.000000000000000 ) );
#135 = DIRECTION( '', ( 1.00000000000000, -0.000000000000000, -0.000000000000000 ) );
#136 = DIRECTION( '', ( 0.000000000000000, 0.000000000000000, 1.00000000000000 ) );
#137 = SURFACE_STYLE_FILL_AREA( #165 );
#138 = ORIENTED_EDGE( '', *, *, #166, .F. );
#139 = ORIENTED_EDGE( '', *, *, #164, .T. );
#140 = CARTESIAN_POINT( '', ( 0.000000000000000, 0.000000000000000, 0.000000000000000 ) );
#141 = DIRECTION( '', ( -1.00000000000000, 6.12303176911189E-017, 0.000000000000000 ) );
#142 = DIRECTION( '', ( -6.12303176911189E-017, -1.00000000000000, 0.000000000000000 ) );
#143 = SURFACE_STYLE_FILL_AREA( #167 );
#144 = ORIENTED_EDGE( '', *, *, #166, .T. );
#145 = ORIENTED_EDGE( '', *, *, #160, .F. );
#146 = ORIENTED_EDGE( '', *, *, #158, .F. );
#147 = CARTESIAN_POINT( '', ( 6.00000000000000, 0.000000000000000, -0.525000000000000 ) );
#148 = DIRECTION( '', ( 1.00000000000000, -0.000000000000000, -0.000000000000000 ) );
#149 = DIRECTION( '', ( 0.000000000000000, 0.000000000000000, 1.00000000000000 ) );
#150 = SURFACE_STYLE_FILL_AREA( #168 );
#151 = ORIENTED_EDGE( '', *, *, #163, .T. );
#152 = ORIENTED_EDGE( '', *, *, #157, .T. );
#153 = CARTESIAN_POINT( '', ( 3.00000000000000, 1.68518870133883E-031, 17.5916663508606 ) );
#154 = DIRECTION( '', ( -0.000000000000000, -0.000000000000000, 1.00000000000000 ) );
#155 = DIRECTION( '', ( 1.00000000000000, 0.000000000000000, 0.000000000000000 ) );
#156 = FILL_AREA_STYLE( '', ( #169 ) );
#157 = EDGE_CURVE( '', #170, #170, #171, .T. );
#158 = EDGE_CURVE( '', #172, #172, #173, .T. );
#159 = FILL_AREA_STYLE( '', ( #174 ) );
#160 = EDGE_CURVE( '', #175, #175, #176, .T. );
#161 = EDGE_CURVE( '', #177, #177, #178, .T. );
#162 = FILL_AREA_STYLE( '', ( #179 ) );
#163 = EDGE_CURVE( '', #180, #180, #181, .T. );
#164 = EDGE_CURVE( '', #182, #182, #183, .T. );
#165 = FILL_AREA_STYLE( '', ( #184 ) );
#166 = EDGE_CURVE( '', #185, #185, #186, .T. );
#167 = FILL_AREA_STYLE( '', ( #187 ) );
#168 = FILL_AREA_STYLE( '', ( #188 ) );
#169 = FILL_AREA_STYLE_COLOUR( '', #189 );
#170 = VERTEX_POINT( '', #190 );
#171 = CIRCLE( '', #191, 1.62100000000000 );
#172 = VERTEX_POINT( '', #192 );
#173 = B_SPLINE_CURVE_WITH_KNOTS( '', 3, ( #193, #194, #195, #196, #197, #198, #199, #200, #201, #202, #203, #204, #205, #206, #207, #208, #209, #210, #211, #212, #213, #214, #215, #216, #217, #218, #219, #220, #221, #222, #223, #224, #225, #226, #227, #228, #229, #230, #231, #232, #233, #234, #235, #236, #237, #238, #239, #240, #241, #242, #243, #244, #245, #246 ), .UNSPECIFIED., .T., .F., ( 2, 2, 2, 2, 2, 2, 2, 2, 2, 2, 2, 2, 2, 2, 2, 2, 2, 2, 2, 2, 2, 2, 2, 2, 2, 2, 2, 2, 2 ), ( -0.000633935845488965, 0.000000000000000, 0.000316967922744484, 0.000633935845488969, 0.000950903768233453, 0.00126787169097794, 0.00190180753646691, 0.00253574338195587, 0.00285271130470036, 0.00316967922744484, 0.00348664715018933, 0.00380361507293381, 0.00412058299567830, 0.00443755091842278, 0.00475451884116726, 0.00507148676391175, 0.00570542260940072, 0.00633935845488969, 0.00665632637763417, 0.00697329430037865, 0.00729026222312314, 0.00760723014586762, 0.00792419806861211, 0.00824116599135659, 0.00855813391410108, 0.00887510183684556, 0.00950903768233453, 0.0101429735278235, 0.0104599414505680 ), .UNSPECIFIED. );
#174 = FILL_AREA_STYLE_COLOUR( '', #247 );
#175 = VERTEX_POINT( '', #248 );
#176 = CIRCLE( '', #249, 14.2500000000000 );
#177 = VERTEX_POINT( '', #250 );
#178 = CIRCLE( '', #251, 17.7250000000000 );
#179 = FILL_AREA_STYLE_COLOUR( '', #252 );
#180 = VERTEX_POINT( '', #253 );
#181 = B_SPLINE_CURVE_WITH_KNOTS( '', 3, ( #254, #255, #256, #257, #258, #259, #260, #261, #262, #263, #264, #265, #266, #267, #268, #269, #270, #271, #272, #273, #274, #275, #276, #277, #278, #279, #280, #281, #282, #283, #284, #285, #286, #287, #288, #289, #290, #291, #292, #293, #294, #295, #296, #297, #298, #299, #300, #301, #302, #303, #304, #305, #306, #307, #308, #309, #310, #311 ), .UNSPECIFIED., .T., .F., ( 2, 2, 2, 2, 2, 2, 2, 2, 2, 2, 2, 2, 2, 2, 2, 2, 2, 2, 2, 2, 2, 2, 2, 2, 2, 2, 2, 2, 2, 2, 2 ), ( -0.000877358622553239, 0.000000000000000, 0.000438679311276621, 0.000877358622553242, 0.00131603793382986, 0.00175471724510648, 0.00263207586765972, 0.00350943449021296, 0.00394811380148958, 0.00438679311276620, 0.00482547242404282, 0.00526415173531944, 0.00570283104659606, 0.00614151035787268, 0.00658018966914930, 0.00701886898042592, 0.00789622760297916, 0.00833490691425578, 0.00877358622553240, 0.00921226553680902, 0.00965094484808564, 0.0100896241593623, 0.0105283034706389, 0.0109669827819155, 0.0114056620931921, 0.0118443414044687, 0.0122830207157454, 0.0127217000270220, 0.0131603793382986, 0.0140377379608518, 0.0144764172721285 ), .UNSPECIFIED. );
#182 = VERTEX_POINT( '', #312 );
#183 = CIRCLE( '', #313, 17.7250000000000 );
#184 = FILL_AREA_STYLE_COLOUR( '', #314 );
#185 = VERTEX_POINT( '', #315 );
#186 = CIRCLE( '', #316, 14.2500000000000 );
#187 = FILL_AREA_STYLE_COLOUR( '', #317 );
#188 = FILL_AREA_STYLE_COLOUR( '', #318 );
#189 = COLOUR_RGB( '', 0.184313729405403, 0.749019622802734, 0.580392181873322 );
#190 = CARTESIAN_POINT( '', ( 1.37900000000000, 1.68518870133883E-031, 17.0426663508606 ) );
#191 = AXIS2_PLACEMENT_3D( '', #319, #320, #321 );
#192 = CARTESIAN_POINT( '', ( 4.62100000000000, 0.000000000000000, 13.7250000000000 ) );
#193 = CARTESIAN_POINT( '', ( 4.62100000000000, 0.214367772852054, 13.7250000000000 ) );
#194 = CARTESIAN_POINT( '', ( 4.62100000000000, -0.107183886426027, 13.7250000000000 ) );
#195 = CARTESIAN_POINT( '', ( 4.61047397907929, -0.212559413668468, 13.7237917317738 ) );
#196 = CARTESIAN_POINT( '', ( 4.56924711305595, -0.419846924242773, 13.7191909521042 ) );
#197 = CARTESIAN_POINT( '', ( 4.53803959309010, -0.522839621918924, 13.7157439021226 ) );
#198 = CARTESIAN_POINT( '', ( 4.45664609383352, -0.719103064574637, 13.7071832105482 ) );
#199 = CARTESIAN_POINT( '', ( 4.40685080625638, -0.812174494310643, 13.7021100387565 ) );
#200 = CARTESIAN_POINT( '', ( 4.28922059501806, -0.988315161097037, 13.6909600662931 ) );
#201 = CARTESIAN_POINT( '', ( 4.22081033432007, -1.07164575240703, 13.6848448718033 ) );
#202 = CARTESIAN_POINT( '', ( 3.99667330028976, -1.29573504105909, 13.6667593800360 ) );
#203 = CARTESIAN_POINT( '', ( 3.81596433936435, -1.41647889171055, 13.6546579902480 ) );
#204 = CARTESIAN_POINT( '', ( 3.42594331339488, -1.57822132400689, 13.6375679388844 ) );
#205 = CARTESIAN_POINT( '', ( 3.21251172793354, -1.62088307401870, 13.6325152507123 ) );
#206 = CARTESIAN_POINT( '', ( 2.89508478956061, -1.62105809339328, 13.6324952114169 ) );
#207 = CARTESIAN_POINT( '', ( 2.78759695719076, -1.61051732956357, 13.6337134837241 ) );
#208 = CARTESIAN_POINT( '', ( 2.57963604487773, -1.56913201058838, 13.6383597114654 ) );
#209 = CARTESIAN_POINT( '', ( 2.47854950344908, -1.53851195947727, 13.6417621155567 ) );
#210 = CARTESIAN_POINT( '', ( 2.28219054043387, -1.45728488963730, 13.6503479194925 ) );
#211 = CARTESIAN_POINT( '', ( 2.18738007833500, -1.40656798609757, 13.6555336906456 ) );
#212 = CARTESIAN_POINT( '', ( 2.01181895520760, -1.28929548952690, 13.6666766589341 ) );
#213 = CARTESIAN_POINT( '', ( 1.92992537746512, -1.22230328179809, 13.6726839399544 ) );
#214 = CARTESIAN_POINT( '', ( 1.77857542846447, -1.07107750724997, 13.6848925944215 ) );
#215 = CARTESIAN_POINT( '', ( 1.71156137615379, -0.989296696299420, 13.6908896172539 ) );
#216 = CARTESIAN_POINT( '', ( 1.59414924297402, -0.813858519459700, 13.7020116283624 ) );
#217 = CARTESIAN_POINT( '', ( 1.54334253757689, -0.719079691190188, 13.7071843806878 ) );
#218 = CARTESIAN_POINT( '', ( 1.46195368264081, -0.522819367251214, 13.7157446349341 ) );
#219 = CARTESIAN_POINT( '', ( 1.43125093396841, -0.421782483501526, 13.7191358496780 ) );
#220 = CARTESIAN_POINT( '', ( 1.38968629745407, -0.213924928319533, 13.7237733750143 ) );
#221 = CARTESIAN_POINT( '', ( 1.37903943178008, -0.106429467481594, 13.7249955144624 ) );
#222 = CARTESIAN_POINT( '', ( 1.37892147210351, 0.211052096606405, 13.7250089328920 ) );
#223 = CARTESIAN_POINT( '', ( 1.42137946619252, 0.424490195978163, 13.7200152031007 ) );
#224 = CARTESIAN_POINT( '', ( 1.58282028668406, 0.814761545733443, 13.7030291567963 ) );
#225 = CARTESIAN_POINT( '', ( 1.70339397810492, 0.995547351174354, 13.6909735488987 ) );
#226 = CARTESIAN_POINT( '', ( 1.92732970907220, 1.21991172757380, 13.6728852296665 ) );
#227 = CARTESIAN_POINT( '', ( 2.01061802848303, 1.28839955134128, 13.6667590116464 ) );
#228 = CARTESIAN_POINT( '', ( 2.18660782644953, 1.40614482236577, 13.6555766450831 ) );
#229 = CARTESIAN_POINT( '', ( 2.27961785245006, 1.45601333802624, 13.6504790655965 ) );
#230 = CARTESIAN_POINT( '', ( 2.47579381664317, 1.53757378891207, 13.6418644527759 ) );
#231 = CARTESIAN_POINT( '', ( 2.57876216284093, 1.56887358904100, 13.6383883556625 ) );
#232 = CARTESIAN_POINT( '', ( 2.78599153478392, 1.61028135139816, 13.6337403401944 ) );
#233 = CARTESIAN_POINT( '', ( 2.89133903680030, 1.62089982686039, 13.6325133325492 ) );
#234 = CARTESIAN_POINT( '', ( 3.10565136723704, 1.62109877621336, 13.6324905533355 ) );
#235 = CARTESIAN_POINT( '', ( 3.21110611589166, 1.61066520491645, 13.6336964084310 ) );
#236 = CARTESIAN_POINT( '', ( 3.41843306055594, 1.56962478584189, 13.6383048551571 ) );
#237 = CARTESIAN_POINT( '', ( 3.52143619016533, 1.53851688395877, 13.6417615795161 ) );
#238 = CARTESIAN_POINT( '', ( 3.71779788001572, 1.45729067316211, 13.6503473236812 ) );
#239 = CARTESIAN_POINT( '', ( 3.81091823203326, 1.40757516948770, 13.6554341675579 ) );
#240 = CARTESIAN_POINT( '', ( 3.98716110400724, 1.29010433358604, 13.6666035685424 ) );
#241 = CARTESIAN_POINT( '', ( 4.07055473382942, 1.22176743953283, 13.6727249220618 ) );
#242 = CARTESIAN_POINT( '', ( 4.29485004296632, 0.997824044578404, 13.6908109769160 ) );
#243 = CARTESIAN_POINT( '', ( 4.41575315662331, 0.817223379643029, 13.7028853069392 ) );
#244 = CARTESIAN_POINT( '', ( 4.57784325644440, 0.427342615259695, 13.7199272602157 ) );
#245 = CARTESIAN_POINT( '', ( 4.62100000000000, 0.214367772852054, 13.7250000000000 ) );
#246 = CARTESIAN_POINT( '', ( 4.62100000000000, -0.107183886426027, 13.7250000000000 ) );
#247 = COLOUR_RGB( '', 0.600000023841858, 0.666666686534882, 0.666666686534882 );
#248 = CARTESIAN_POINT( '', ( 6.00000000000000, 14.2500000000000, -0.525000000000000 ) );
#249 = AXIS2_PLACEMENT_3D( '', #322, #323, #324 );
#250 = CARTESIAN_POINT( '', ( 6.00000000000000, 17.7250000000000, 0.000000000000000 ) );
#251 = AXIS2_PLACEMENT_3D( '', #325, #326, #327 );
#252 = COLOUR_RGB( '', 0.600000023841858, 0.666666686534882, 0.666666686534882 );
#253 = CARTESIAN_POINT( '', ( 1.16405690146327, -1.30918702935141, 17.6765849170012 ) );
#254 = CARTESIAN_POINT( '', ( 0.979036453310667, -1.07907699584720, 17.6936276360898 ) );
#255 = CARTESIAN_POINT( '', ( 1.25656712553958, -1.42424204610352, 17.6680635574568 ) );
#256 = CARTESIAN_POINT( '', ( 1.35916978823920, -1.52829890769797, 17.6592411095601 ) );
#257 = CARTESIAN_POINT( '', ( 1.58331233903868, -1.71586052640869, 17.6420043297455 ) );
#258 = CARTESIAN_POINT( '', ( 1.70600612832099, -1.79978144629483, 17.6335328559031 ) );
#259 = CARTESIAN_POINT( '', ( 1.96153412372451, -1.94138337970679, 17.6185051808500 ) );
#260 = CARTESIAN_POINT( '', ( 2.09504535859937, -1.99989545739425, 17.6118772477609 ) );
#261 = CARTESIAN_POINT( '', ( 2.37348362965071, -2.09258886173665, 17.6011043371272 ) );
#262 = CARTESIAN_POINT( '', ( 2.51775112141998, -2.12623165864550, 17.5970218861457 ) );
#263 = CARTESIAN_POINT( '', ( 2.95093902808978, -2.18692048365130, 17.5896181058331 ) );
#264 = CARTESIAN_POINT( '', ( 3.25053814077783, -2.17460942193056, 17.5912153992821 ) );
#265 = CARTESIAN_POINT( '', ( 3.81872837917051, -2.04652546849539, 17.6065760120669 ) );
#266 = CARTESIAN_POINT( '', ( 4.09449250355263, -1.92902820177086, 17.6204721086393 ) );
#267 = CARTESIAN_POINT( '', ( 4.45661939708392, -1.68577740242207, 17.6448411747775 ) );
#268 = CARTESIAN_POINT( '', ( 4.57113652601168, -1.59208297515743, 17.6536595950788 ) );
#269 = CARTESIAN_POINT( '', ( 4.77856245871904, -1.38496822324720, 17.6711145183121 ) );
#270 = CARTESIAN_POINT( '', ( 4.87085627700981, -1.27264789603671, 17.6796707110272 ) );
#271 = CARTESIAN_POINT( '', ( 5.03225847639266, -1.03014578829481, 17.6954567268691 ) );
#272 = CARTESIAN_POINT( '', ( 5.10183326368765, -0.898281715126638, 17.7027440266787 ) );
#273 = CARTESIAN_POINT( '', ( 5.21018221258032, -0.627010687867285, 17.7144267113316 ) );
#274 = CARTESIAN_POINT( '', ( 5.24983280598379, -0.486915788048075, 17.7189020849666 ) );
#275 = CARTESIAN_POINT( '', ( 5.29903275759407, -0.197466158749243, 17.7244911125096 ) );
#276 = CARTESIAN_POINT( '', ( 5.30795328801539, -0.0491523343686782, 17.7255306350536 ) );
#277 = CARTESIAN_POINT( '', ( 5.29413954183202, 0.242234806582307, 17.7239435381824 ) );
#278 = CARTESIAN_POINT( '', ( 5.27138536004832, 0.388376003888856, 17.7213152139665 ) );
#279 = CARTESIAN_POINT( '', ( 5.19509951422725, 0.672669624085671, 17.7128022743435 ) );
#280 = CARTESIAN_POINT( '', ( 5.14244770758691, 0.808781360028767, 17.7070193612126 ) );
#281 = CARTESIAN_POINT( '', ( 5.00933434779895, 1.06946600168545, 17.6931880795386 ) );
#282 = CARTESIAN_POINT( '', ( 4.92824450049731, 1.19422996940264, 17.6850913386600 ) );
#283 = CARTESIAN_POINT( '', ( 4.65418698027017, 1.53555821890599, 17.6598343554695 ) );
#284 = CARTESIAN_POINT( '', ( 4.42394628366826, 1.72731783269351, 17.6412106732062 ) );
#285 = CARTESIAN_POINT( '', ( 4.04149394574029, 1.93992670969351, 17.6186659068987 ) );
#286 = CARTESIAN_POINT( '', ( 3.90560048124224, 1.99962455924325, 17.6119080004140 ) );
#287 = CARTESIAN_POINT( '', ( 3.62751172486915, 2.09231306971597, 17.6011371169954 ) );
#288 = CARTESIAN_POINT( '', ( 3.48554961632233, 2.12559145541452, 17.5970995071777 ) );
#289 = CARTESIAN_POINT( '', ( 3.19589181772752, 2.16652404416137, 17.5921068569661 ) );
#290 = CARTESIAN_POINT( '', ( 3.04718447679300, 2.17391931759354, 17.5911834567866 ) );
#291 = CARTESIAN_POINT( '', ( 2.75520805926635, 2.16207415137927, 17.5926432344223 ) );
#292 = CARTESIAN_POINT( '', ( 2.61069138537410, 2.14317928938269, 17.5949837273217 ) );
#293 = CARTESIAN_POINT( '', ( 2.32464903599273, 2.07899175513170, 17.6026834066073 ) );
#294 = CARTESIAN_POINT( '', ( 2.18335854504319, 2.03338485898744, 17.6080746910389 ) );
#295 = CARTESIAN_POINT( '', ( 1.91551438884393, 1.91880730732068, 17.6209286596177 ) );
#296 = CARTESIAN_POINT( '', ( 1.78741203949835, 1.84957658802916, 17.6284274203294 ) );
#297 = CARTESIAN_POINT( '', ( 1.54343380406512, 1.68593537573514, 17.6448295196539 ) );
#298 = CARTESIAN_POINT( '', ( 1.42935240229045, 1.59240629323611, 17.6536249297397 ) );
#299 = CARTESIAN_POINT( '', ( 1.22347410960876, 1.38716460199678, 17.6709367417133 ) );
#300 = CARTESIAN_POINT( '', ( 1.13050700484030, 1.27464908761200, 17.6795382249300 ) );
#301 = CARTESIAN_POINT( '', ( 0.966800342448961, 1.02877866942355, 17.6955479314049 ) );
#302 = CARTESIAN_POINT( '', ( 0.898891637965620, 0.899707678002227, 17.7026679000744 ) );
#303 = CARTESIAN_POINT( '', ( 0.790621658680045, 0.629406821816224, 17.7143380271133 ) );
#304 = CARTESIAN_POINT( '', ( 0.750017706806080, 0.486276344462367, 17.7189189541136 ) );
#305 = CARTESIAN_POINT( '', ( 0.700928242106348, 0.196995783548286, 17.7244956556426 ) );
#306 = CARTESIAN_POINT( '', ( 0.692047697954170, 0.0514418159862832, 17.7255305455250 ) );
#307 = CARTESIAN_POINT( '', ( 0.705717237082678, -0.241500254025555, 17.7239599697155 ) );
#308 = CARTESIAN_POINT( '', ( 0.728767490878920, -0.388726965151850, 17.7212985389433 ) );
#309 = CARTESIAN_POINT( '', ( 0.842116876129883, -0.811799078444975, 17.7086484378507 ) );
#310 = CARTESIAN_POINT( '', ( 0.979036453310667, -1.07907699584720, 17.6936276360898 ) );
#311 = CARTESIAN_POINT( '', ( 1.25656712553958, -1.42424204610352, 17.6680635574568 ) );
#312 = CARTESIAN_POINT( '', ( 1.08530738107508E-015, 17.7250000000000, 0.000000000000000 ) );
#313 = AXIS2_PLACEMENT_3D( '', #328, #329, #330 );
#314 = COLOUR_RGB( '', 0.600000023841858, 0.666666686534882, 0.666666686534882 );
#315 = CARTESIAN_POINT( '', ( 8.72532027098444E-016, 14.2500000000000, -0.525000000000000 ) );
#316 = AXIS2_PLACEMENT_3D( '', #331, #332, #333 );
#317 = COLOUR_RGB( '', 0.600000023841858, 0.666666686534882, 0.666666686534882 );
#318 = COLOUR_RGB( '', 0.600000023841858, 0.666666686534882, 0.666666686534882 );
#319 = CARTESIAN_POINT( '', ( 3.00000000000000, 1.68518870133883E-031, 17.0426663508606 ) );
#320 = DIRECTION( '', ( 0.000000000000000, 0.000000000000000, -1.00000000000000 ) );
#321 = DIRECTION( '', ( -1.00000000000000, 0.000000000000000, 0.000000000000000 ) );
#322 = CARTESIAN_POINT( '', ( 6.00000000000000, 0.000000000000000, -0.525000000000000 ) );
#323 = DIRECTION( '', ( -1.00000000000000, 6.12303176911189E-017, 0.000000000000000 ) );
#324 = DIRECTION( '', ( 6.12303176911189E-017, 1.00000000000000, 0.000000000000000 ) );
#325 = CARTESIAN_POINT( '', ( 6.00000000000000, 0.000000000000000, 0.000000000000000 ) );
#326 = DIRECTION( '', ( -1.00000000000000, 6.12303176911189E-017, 0.000000000000000 ) );
#327 = DIRECTION( '', ( 6.12303176911189E-017, 1.00000000000000, 0.000000000000000 ) );
#328 = CARTESIAN_POINT( '', ( 0.000000000000000, 0.000000000000000, 0.000000000000000 ) );
#329 = DIRECTION( '', ( -1.00000000000000, 6.12303176911189E-017, 0.000000000000000 ) );
#330 = DIRECTION( '', ( 6.12303176911189E-017, 1.00000000000000, 0.000000000000000 ) );
#331 = CARTESIAN_POINT( '', ( 0.000000000000000, 0.000000000000000, -0.525000000000000 ) );
#332 = DIRECTION( '', ( -1.00000000000000, 6.12303176911189E-017, 0.000000000000000 ) );
#333 = DIRECTION( '', ( 6.12303176911189E-017, 1.00000000000000, 0.000000000000000 ) );
ENDSEC;
END-ISO-10303-21;
