ISO-10303-21;
HEADER;
FILE_DESCRIPTION( ( 'Unknown' ), '1' );
FILE_NAME( 'C:/Users/bkuehnle/Desktop/749032500-A.stp', 'Unknown', ( 'Unknown' ), ( 'Unknown' ), 'PSStep 15.0.49', 'Unknown', '  ' );
FILE_SCHEMA( ( 'AUTOMOTIVE_DESIGN { 1 0 10303 214 1 1 1 1 }' ) );
ENDSEC;
DATA;
#1 = MECHANICAL_DESIGN_GEOMETRIC_PRESENTATION_REPRESENTATION( ' ', ( #10, #11, #12, #13, #14, #15 ), #6 );
#2 = PRODUCT_DEFINITION_CONTEXT( '', #16, 'design' );
#3 = APPLICATION_PROTOCOL_DEFINITION( 'international standard', 'automotive_design', 2001, #16 );
#4 = PRODUCT_CATEGORY_RELATIONSHIP( 'NONE', 'NONE', #17, #18 );
#5 = SHAPE_DEFINITION_REPRESENTATION( #19, #20 );
#6 =  ( GEOMETRIC_REPRESENTATION_CONTEXT( 3 )GLOBAL_UNCERTAINTY_ASSIGNED_CONTEXT( ( #23 ) )GLOBAL_UNIT_ASSIGNED_CONTEXT( ( #25, #26, #27 ) )REPRESENTATION_CONTEXT( 'NONE', 'WORKSPACE' ) );
#10 = STYLED_ITEM( '', ( #29 ), #30 );
#11 = STYLED_ITEM( '', ( #31 ), #32 );
#12 = STYLED_ITEM( '', ( #33 ), #34 );
#13 = STYLED_ITEM( '', ( #35 ), #36 );
#14 = STYLED_ITEM( '', ( #37 ), #38 );
#15 = STYLED_ITEM( '', ( #39 ), #40 );
#16 = APPLICATION_CONTEXT( 'core data for automotive mechanical design processes' );
#17 = PRODUCT_CATEGORY( 'part', 'NONE' );
#18 = PRODUCT_RELATED_PRODUCT_CATEGORY( 'detail', ' ', ( #41 ) );
#19 = PRODUCT_DEFINITION_SHAPE( 'NONE', 'NONE', #42 );
#20 = ADVANCED_BREP_SHAPE_REPRESENTATION( '1', ( #43, #44 ), #6 );
#23 = UNCERTAINTY_MEASURE_WITH_UNIT( LENGTH_MEASURE( 0.00100000000000000 ), #25, '', '' );
#25 =  ( CONVERSION_BASED_UNIT( 'MILLIMETRE', #47 )LENGTH_UNIT(  )NAMED_UNIT( #50 ) );
#26 =  ( NAMED_UNIT( #52 )PLANE_ANGLE_UNIT(  )SI_UNIT( $, .RADIAN. ) );
#27 =  ( NAMED_UNIT( #52 )SI_UNIT( $, .STERADIAN. )SOLID_ANGLE_UNIT(  ) );
#29 = PRESENTATION_STYLE_ASSIGNMENT( ( #58 ) );
#30 = ADVANCED_FACE( '', ( #59, #60, #61 ), #62, .F. );
#31 = PRESENTATION_STYLE_ASSIGNMENT( ( #63 ) );
#32 = ADVANCED_FACE( '', ( #64, #65, #66 ), #67, .T. );
#33 = PRESENTATION_STYLE_ASSIGNMENT( ( #68 ) );
#34 = ADVANCED_FACE( '', ( #69, #70 ), #71, .T. );
#35 = PRESENTATION_STYLE_ASSIGNMENT( ( #72 ) );
#36 = ADVANCED_FACE( '', ( #73, #74 ), #75, .F. );
#37 = PRESENTATION_STYLE_ASSIGNMENT( ( #76 ) );
#38 = ADVANCED_FACE( '', ( #77, #78 ), #79, .F. );
#39 = PRESENTATION_STYLE_ASSIGNMENT( ( #80 ) );
#40 = ADVANCED_FACE( '', ( #81, #82 ), #83, .F. );
#41 = PRODUCT( '1', '1', 'PART-1-DESC', ( #84 ) );
#42 = PRODUCT_DEFINITION( 'NONE', 'NONE', #85, #2 );
#43 = MANIFOLD_SOLID_BREP( '1', #86 );
#44 = AXIS2_PLACEMENT_3D( '', #87, #88, #89 );
#47 = LENGTH_MEASURE_WITH_UNIT( LENGTH_MEASURE( 1.00000000000000 ), #90 );
#50 = DIMENSIONAL_EXPONENTS( 1.00000000000000, 0.000000000000000, 0.000000000000000, 0.000000000000000, 0.000000000000000, 0.000000000000000, 0.000000000000000 );
#52 = DIMENSIONAL_EXPONENTS( 0.000000000000000, 0.000000000000000, 0.000000000000000, 0.000000000000000, 0.000000000000000, 0.000000000000000, 0.000000000000000 );
#58 = SURFACE_STYLE_USAGE( .BOTH., #91 );
#59 = FACE_OUTER_BOUND( '', #92, .T. );
#60 = FACE_OUTER_BOUND( '', #93, .T. );
#61 = FACE_BOUND( '', #94, .T. );
#62 = CYLINDRICAL_SURFACE( '', #95, 16.2500000000000 );
#63 = SURFACE_STYLE_USAGE( .BOTH., #96 );
#64 = FACE_BOUND( '', #97, .T. );
#65 = FACE_OUTER_BOUND( '', #98, .T. );
#66 = FACE_OUTER_BOUND( '', #99, .T. );
#67 = CYLINDRICAL_SURFACE( '', #100, 19.7250000000000 );
#68 = SURFACE_STYLE_USAGE( .BOTH., #101 );
#69 = FACE_BOUND( '', #102, .T. );
#70 = FACE_OUTER_BOUND( '', #103, .T. );
#71 = PLANE( '', #104 );
#72 = SURFACE_STYLE_USAGE( .BOTH., #105 );
#73 = FACE_OUTER_BOUND( '', #106, .T. );
#74 = FACE_BOUND( '', #107, .T. );
#75 = CONICAL_SURFACE( '', #108, 2.18000000000000, 0.785398163397445 );
#76 = SURFACE_STYLE_USAGE( .BOTH., #109 );
#77 = FACE_BOUND( '', #110, .T. );
#78 = FACE_OUTER_BOUND( '', #111, .T. );
#79 = PLANE( '', #112 );
#80 = SURFACE_STYLE_USAGE( .BOTH., #113 );
#81 = FACE_OUTER_BOUND( '', #114, .T. );
#82 = FACE_OUTER_BOUND( '', #115, .T. );
#83 = CYLINDRICAL_SURFACE( '', #116, 1.62100000000000 );
#84 = PRODUCT_CONTEXT( '', #16, 'mechanical' );
#85 = PRODUCT_DEFINITION_FORMATION_WITH_SPECIFIED_SOURCE( ' ', 'NONE', #41, .NOT_KNOWN. );
#86 = CLOSED_SHELL( '', ( #34, #32, #38, #30, #36, #40 ) );
#87 = CARTESIAN_POINT( '', ( 0.000000000000000, 0.000000000000000, 0.000000000000000 ) );
#88 = DIRECTION( '', ( 0.000000000000000, 0.000000000000000, 1.00000000000000 ) );
#89 = DIRECTION( '', ( 1.00000000000000, 0.000000000000000, 0.000000000000000 ) );
#90 =  ( LENGTH_UNIT(  )NAMED_UNIT( #50 )SI_UNIT( .MILLI., .METRE. ) );
#91 = SURFACE_SIDE_STYLE( '', ( #118 ) );
#92 = EDGE_LOOP( '', ( #119 ) );
#93 = EDGE_LOOP( '', ( #120 ) );
#94 = EDGE_LOOP( '', ( #121 ) );
#95 = AXIS2_PLACEMENT_3D( '', #122, #123, #124 );
#96 = SURFACE_SIDE_STYLE( '', ( #125 ) );
#97 = EDGE_LOOP( '', ( #126 ) );
#98 = EDGE_LOOP( '', ( #127 ) );
#99 = EDGE_LOOP( '', ( #128 ) );
#100 = AXIS2_PLACEMENT_3D( '', #129, #130, #131 );
#101 = SURFACE_SIDE_STYLE( '', ( #132 ) );
#102 = EDGE_LOOP( '', ( #133 ) );
#103 = EDGE_LOOP( '', ( #134 ) );
#104 = AXIS2_PLACEMENT_3D( '', #135, #136, #137 );
#105 = SURFACE_SIDE_STYLE( '', ( #138 ) );
#106 = EDGE_LOOP( '', ( #139 ) );
#107 = EDGE_LOOP( '', ( #140 ) );
#108 = AXIS2_PLACEMENT_3D( '', #141, #142, #143 );
#109 = SURFACE_SIDE_STYLE( '', ( #144 ) );
#110 = EDGE_LOOP( '', ( #145 ) );
#111 = EDGE_LOOP( '', ( #146 ) );
#112 = AXIS2_PLACEMENT_3D( '', #147, #148, #149 );
#113 = SURFACE_SIDE_STYLE( '', ( #150 ) );
#114 = EDGE_LOOP( '', ( #151 ) );
#115 = EDGE_LOOP( '', ( #152 ) );
#116 = AXIS2_PLACEMENT_3D( '', #153, #154, #155 );
#118 = SURFACE_STYLE_FILL_AREA( #156 );
#119 = ORIENTED_EDGE( '', *, *, #157, .T. );
#120 = ORIENTED_EDGE( '', *, *, #158, .F. );
#121 = ORIENTED_EDGE( '', *, *, #159, .F. );
#122 = CARTESIAN_POINT( '', ( 6.00000000000000, 0.000000000000000, -0.525000000000000 ) );
#123 = DIRECTION( '', ( 1.00000000000000, -0.000000000000000, -0.000000000000000 ) );
#124 = DIRECTION( '', ( 0.000000000000000, 0.000000000000000, 1.00000000000000 ) );
#125 = SURFACE_STYLE_FILL_AREA( #160 );
#126 = ORIENTED_EDGE( '', *, *, #161, .F. );
#127 = ORIENTED_EDGE( '', *, *, #162, .F. );
#128 = ORIENTED_EDGE( '', *, *, #163, .T. );
#129 = CARTESIAN_POINT( '', ( 6.00000000000000, 0.000000000000000, 0.000000000000000 ) );
#130 = DIRECTION( '', ( 1.00000000000000, -0.000000000000000, -0.000000000000000 ) );
#131 = DIRECTION( '', ( 0.000000000000000, 0.000000000000000, 1.00000000000000 ) );
#132 = SURFACE_STYLE_FILL_AREA( #164 );
#133 = ORIENTED_EDGE( '', *, *, #157, .F. );
#134 = ORIENTED_EDGE( '', *, *, #162, .T. );
#135 = CARTESIAN_POINT( '', ( 0.000000000000000, 0.000000000000000, 0.000000000000000 ) );
#136 = DIRECTION( '', ( -1.00000000000000, 6.12303176911189E-017, 0.000000000000000 ) );
#137 = DIRECTION( '', ( -6.12303176911189E-017, -1.00000000000000, 0.000000000000000 ) );
#138 = SURFACE_STYLE_FILL_AREA( #165 );
#139 = ORIENTED_EDGE( '', *, *, #161, .T. );
#140 = ORIENTED_EDGE( '', *, *, #166, .T. );
#141 = CARTESIAN_POINT( '', ( 3.00000000000000, 1.68518870133883E-031, 19.6041634608570 ) );
#142 = DIRECTION( '', ( -0.000000000000000, -0.000000000000000, 1.00000000000000 ) );
#143 = DIRECTION( '', ( 1.00000000000000, 0.000000000000000, 0.000000000000000 ) );
#144 = SURFACE_STYLE_FILL_AREA( #167 );
#145 = ORIENTED_EDGE( '', *, *, #158, .T. );
#146 = ORIENTED_EDGE( '', *, *, #163, .F. );
#147 = CARTESIAN_POINT( '', ( 6.00000000000000, 0.000000000000000, 0.000000000000000 ) );
#148 = DIRECTION( '', ( -1.00000000000000, 6.12303176911189E-017, 0.000000000000000 ) );
#149 = DIRECTION( '', ( -6.12303176911189E-017, -1.00000000000000, 0.000000000000000 ) );
#150 = SURFACE_STYLE_FILL_AREA( #168 );
#151 = ORIENTED_EDGE( '', *, *, #166, .F. );
#152 = ORIENTED_EDGE( '', *, *, #159, .T. );
#153 = CARTESIAN_POINT( '', ( 3.00000000000000, 0.000000000000000, 56.1124317776373 ) );
#154 = DIRECTION( '', ( -0.000000000000000, -0.000000000000000, 1.00000000000000 ) );
#155 = DIRECTION( '', ( -1.00000000000000, 0.000000000000000, 0.000000000000000 ) );
#156 = FILL_AREA_STYLE( '', ( #169 ) );
#157 = EDGE_CURVE( '', #170, #170, #171, .T. );
#158 = EDGE_CURVE( '', #172, #172, #173, .T. );
#159 = EDGE_CURVE( '', #174, #174, #175, .T. );
#160 = FILL_AREA_STYLE( '', ( #176 ) );
#161 = EDGE_CURVE( '', #177, #177, #178, .T. );
#162 = EDGE_CURVE( '', #179, #179, #180, .T. );
#163 = EDGE_CURVE( '', #181, #181, #182, .T. );
#164 = FILL_AREA_STYLE( '', ( #183 ) );
#165 = FILL_AREA_STYLE( '', ( #184 ) );
#166 = EDGE_CURVE( '', #185, #185, #186, .T. );
#167 = FILL_AREA_STYLE( '', ( #187 ) );
#168 = FILL_AREA_STYLE( '', ( #188 ) );
#169 = FILL_AREA_STYLE_COLOUR( '', #189 );
#170 = VERTEX_POINT( '', #190 );
#171 = CIRCLE( '', #191, 16.2500000000000 );
#172 = VERTEX_POINT( '', #192 );
#173 = CIRCLE( '', #193, 16.2500000000000 );
#174 = VERTEX_POINT( '', #194 );
#175 = B_SPLINE_CURVE_WITH_KNOTS( '', 3, ( #195, #196, #197, #198, #199, #200, #201, #202, #203, #204, #205, #206, #207, #208, #209, #210, #211, #212, #213, #214, #215, #216, #217, #218, #219, #220, #221, #222, #223, #224, #225, #226, #227, #228, #229, #230, #231, #232, #233, #234, #235, #236, #237, #238, #239, #240, #241, #242, #243, #244, #245, #246, #247, #248 ), .UNSPECIFIED., .T., .F., ( 2, 2, 2, 2, 2, 2, 2, 2, 2, 2, 2, 2, 2, 2, 2, 2, 2, 2, 2, 2, 2, 2, 2, 2, 2, 2, 2, 2, 2 ), ( -0.000633817756645541, 0.000000000000000, 0.000316908878322769, 0.000633817756645538, 0.000950726634968307, 0.00126763551329108, 0.00190145326993662, 0.00253527102658215, 0.00285217990490493, 0.00316908878322770, 0.00348599766155047, 0.00380290653987324, 0.00411981541819601, 0.00443672429651878, 0.00475363317484155, 0.00507054205316432, 0.00570435980980986, 0.00633817756645540, 0.00665508644477817, 0.00697199532310094, 0.00728890420142371, 0.00760581307974648, 0.00792272195806925, 0.00823963083639202, 0.00855653971471479, 0.00887344859303756, 0.00950726634968310, 0.0101410841063286, 0.0104579929846514 ), .UNSPECIFIED. );
#176 = FILL_AREA_STYLE_COLOUR( '', #249 );
#177 = VERTEX_POINT( '', #250 );
#178 = B_SPLINE_CURVE_WITH_KNOTS( '', 3, ( #251, #252, #253, #254, #255, #256, #257, #258, #259, #260, #261, #262, #263, #264, #265, #266, #267, #268, #269, #270, #271, #272, #273, #274, #275, #276, #277, #278, #279, #280, #281, #282, #283, #284, #285, #286, #287, #288, #289, #290, #291, #292, #293, #294, #295, #296, #297, #298, #299, #300, #301, #302, #303, #304, #305, #306 ), .UNSPECIFIED., .T., .F., ( 2, 2, 2, 2, 2, 2, 2, 2, 2, 2, 2, 2, 2, 2, 2, 2, 2, 2, 2, 2, 2, 2, 2, 2, 2, 2, 2, 2, 2, 2 ), ( -0.000878188851538213, 0.000000000000000, 0.000439094425769104, 0.000878188851538208, 0.00131728327730731, 0.00175637770307642, 0.00263456655461462, 0.00307366098038373, 0.00351275540615283, 0.00395184983192193, 0.00439094425769104, 0.00483003868346014, 0.00526913310922924, 0.00614732196076745, 0.00658641638653655, 0.00702551081230566, 0.00790369966384387, 0.00834279408961297, 0.00878188851538208, 0.00922098294115118, 0.00966007736692029, 0.0100991717926894, 0.0105382662184585, 0.0114164550699967, 0.0118555494957658, 0.0122946439215349, 0.0127337383473040, 0.0131728327730731, 0.0140510216246114, 0.0144901160503805 ), .UNSPECIFIED. );
#179 = VERTEX_POINT( '', #307 );
#180 = CIRCLE( '', #308, 19.7250000000000 );
#181 = VERTEX_POINT( '', #309 );
#182 = CIRCLE( '', #310, 19.7250000000000 );
#183 = FILL_AREA_STYLE_COLOUR( '', #311 );
#184 = FILL_AREA_STYLE_COLOUR( '', #312 );
#185 = VERTEX_POINT( '', #313 );
#186 = CIRCLE( '', #314, 1.62100000000000 );
#187 = FILL_AREA_STYLE_COLOUR( '', #315 );
#188 = FILL_AREA_STYLE_COLOUR( '', #316 );
#189 = COLOUR_RGB( '', 0.600000023841858, 0.666666686534882, 0.666666686534882 );
#190 = CARTESIAN_POINT( '', ( 9.94992662480682E-016, 16.2500000000000, -0.525000000000000 ) );
#191 = AXIS2_PLACEMENT_3D( '', #317, #318, #319 );
#192 = CARTESIAN_POINT( '', ( 6.00000000000000, 16.2500000000000, -0.525000000000000 ) );
#193 = AXIS2_PLACEMENT_3D( '', #320, #321, #322 );
#194 = CARTESIAN_POINT( '', ( 4.62100000000000, 0.000000000000000, 15.7250000000000 ) );
#195 = CARTESIAN_POINT( '', ( 4.62100000000000, 0.214324764125541, 15.7250000000000 ) );
#196 = CARTESIAN_POINT( '', ( 4.62100000000000, -0.107162382062770, 15.7250000000000 ) );
#197 = CARTESIAN_POINT( '', ( 4.61047812660334, -0.212520746519144, 15.7239408333797 ) );
#198 = CARTESIAN_POINT( '', ( 4.56926375658012, -0.419781045609380, 15.7199077297510 ) );
#199 = CARTESIAN_POINT( '', ( 4.53806623266749, -0.522761914227659, 15.7168861243850 ) );
#200 = CARTESIAN_POINT( '', ( 4.45667975856924, -0.719035351018011, 15.7093812034966 ) );
#201 = CARTESIAN_POINT( '', ( 4.40688578905935, -0.812114748500063, 15.7049338032727 ) );
#202 = CARTESIAN_POINT( '', ( 4.28925509822958, -0.988270853499933, 15.6951603673782 ) );
#203 = CARTESIAN_POINT( '', ( 4.22083109429138, -1.07162438511641, 15.6897997564846 ) );
#204 = CARTESIAN_POINT( '', ( 3.99664585909356, -1.29576369983533, 15.6739486170204 ) );
#205 = CARTESIAN_POINT( '', ( 3.81590471502364, -1.41651423411202, 15.6633471215004 ) );
#206 = CARTESIAN_POINT( '', ( 3.42586381182712, -1.57824367358651, 15.6483806610868 ) );
#207 = CARTESIAN_POINT( '', ( 3.21246009472460, -1.62088411170881, 15.6439589865866 ) );
#208 = CARTESIAN_POINT( '', ( 2.89509900755501, -1.62105758091567, 15.6439415956250 ) );
#209 = CARTESIAN_POINT( '', ( 2.78763717802432, -1.61052210051326, 15.6450077517644 ) );
#210 = CARTESIAN_POINT( '', ( 2.57969091272599, -1.56914616131003, 15.6490753198694 ) );
#211 = CARTESIAN_POINT( '', ( 2.47861380169323, -1.53853267999382, 15.6520541165967 ) );
#212 = CARTESIAN_POINT( '', ( 2.28227934433198, -1.45732749772356, 15.6595716428667 ) );
#213 = CARTESIAN_POINT( '', ( 2.18743682374309, -1.40660189548564, 15.6641146699940 ) );
#214 = CARTESIAN_POINT( '', ( 2.01184703206789, -1.28931823835680, 15.6738771577180 ) );
#215 = CARTESIAN_POINT( '', ( 1.92998097725416, -1.22235521050949, 15.6791382795169 ) );
#216 = CARTESIAN_POINT( '', ( 1.77857478135407, -1.07108048481587, 15.6898400003643 ) );
#217 = CARTESIAN_POINT( '', ( 1.71153449347797, -0.989262732563452, 15.6950980088378 ) );
#218 = CARTESIAN_POINT( '', ( 1.59411716521084, -0.813804380905618, 15.7048472759285 ) );
#219 = CARTESIAN_POINT( '', ( 1.54332310183844, -0.719043317989848, 15.7093809337842 ) );
#220 = CARTESIAN_POINT( '', ( 1.46192612249534, -0.522742408956072, 15.7168868352861 ) );
#221 = CARTESIAN_POINT( '', ( 1.43123166761420, -0.421704659638649, 15.7198596686642 ) );
#222 = CARTESIAN_POINT( '', ( 1.38968376865237, -0.213893748660052, 15.7239245779170 ) );
#223 = CARTESIAN_POINT( '', ( 1.37903898805871, -0.106412839928161, 15.7249961107914 ) );
#224 = CARTESIAN_POINT( '', ( 1.37892235211650, 0.211038950134018, 15.7250077456745 ) );
#225 = CARTESIAN_POINT( '', ( 1.42136412513579, 0.424429866581539, 15.7206299232613 ) );
#226 = CARTESIAN_POINT( '', ( 1.58278349718003, 0.814695845815757, 15.7057394469266 ) );
#227 = CARTESIAN_POINT( '', ( 1.70338445448812, 0.995536377478674, 15.6951693480692 ) );
#228 = CARTESIAN_POINT( '', ( 1.92732624988059, 1.21990897764602, 15.6793186736126 ) );
#229 = CARTESIAN_POINT( '', ( 2.01061734801819, 1.28840214741434, 15.6739509578961 ) );
#230 = CARTESIAN_POINT( '', ( 2.18667304111017, 1.40618540151982, 15.6641517642630 ) );
#231 = CARTESIAN_POINT( '', ( 2.27969406292634, 1.45604908593810, 15.6596871204055 ) );
#232 = CARTESIAN_POINT( '', ( 2.47582339550567, 1.53758202088393, 15.6521449166759 ) );
#233 = CARTESIAN_POINT( '', ( 2.57882433634890, 1.56889005256240, 15.6491001791372 ) );
#234 = CARTESIAN_POINT( '', ( 2.78604860540200, 1.61028871244593, 15.6450310100001 ) );
#235 = CARTESIAN_POINT( '', ( 2.89136488658523, 1.62089729771916, 15.6439576646347 ) );
#236 = CARTESIAN_POINT( '', ( 3.10554824002365, 1.62110123269579, 15.6439372193677 ) );
#237 = CARTESIAN_POINT( '', ( 3.21108550468251, 1.61066645584794, 15.6449931486532 ) );
#238 = CARTESIAN_POINT( '', ( 3.41837015081438, 1.56964006676320, 15.6490271707542 ) );
#239 = CARTESIAN_POINT( '', ( 3.52131678374762, 1.53855961958484, 15.6520515985287 ) );
#240 = CARTESIAN_POINT( '', ( 3.71774395245279, 1.45731963232211, 15.6595723951461 ) );
#241 = CARTESIAN_POINT( '', ( 3.81087280126454, 1.40760009824154, 15.6640282051100 ) );
#242 = CARTESIAN_POINT( '', ( 3.98709310568651, 1.29015500506968, 15.6738108305922 ) );
#243 = CARTESIAN_POINT( '', ( 4.07052363305831, 1.22179802649609, 15.6791758148494 ) );
#244 = CARTESIAN_POINT( '', ( 4.29490152986179, 0.997773568454284, 15.6950297450558 ) );
#245 = CARTESIAN_POINT( '', ( 4.41579162037310, 0.817158593852352, 15.7056134684465 ) );
#246 = CARTESIAN_POINT( '', ( 4.57786755965550, 0.427256414828661, 15.7205536589435 ) );
#247 = CARTESIAN_POINT( '', ( 4.62100000000000, 0.214324764125541, 15.7250000000000 ) );
#248 = CARTESIAN_POINT( '', ( 4.62100000000000, -0.107162382062770, 15.7250000000000 ) );
#249 = COLOUR_RGB( '', 0.600000023841858, 0.666666686534882, 0.666666686534882 );
#250 = CARTESIAN_POINT( '', ( 0.954764520777359, -0.997658976071247, 19.6997538453521 ) );
#251 = CARTESIAN_POINT( '', ( 0.813282043606575, -0.737649622497822, 19.7129215563545 ) );
#252 = CARTESIAN_POINT( '', ( 1.02550575936275, -1.12766365285796, 19.6931699898509 ) );
#253 = CARTESIAN_POINT( '', ( 1.10842603659082, -1.24828399294268, 19.6857812057038 ) );
#254 = CARTESIAN_POINT( '', ( 1.29710658219450, -1.47197878986108, 19.6703195969989 ) );
#255 = CARTESIAN_POINT( '', ( 1.40402290296267, -1.57572346196199, 19.6621747003756 ) );
#256 = CARTESIAN_POINT( '', ( 1.63275449530878, -1.75829868463895, 19.6466893931844 ) );
#257 = CARTESIAN_POINT( '', ( 1.75505909024603, -1.83806986286181, 19.6392934854517 ) );
#258 = CARTESIAN_POINT( '', ( 2.01537816190999, -1.97489520679915, 19.6260066837507 ) );
#259 = CARTESIAN_POINT( '', ( 2.15242787175699, -2.03112535410116, 19.6201939915223 ) );
#260 = CARTESIAN_POINT( '', ( 2.57116411013507, -2.15970375301042, 19.6065992608457 ) );
#261 = CARTESIAN_POINT( '', ( 2.86951993090788, -2.19404017832510, 19.6026067928161 ) );
#262 = CARTESIAN_POINT( '', ( 3.30645752323857, -2.16496359792326, 19.6058321097099 ) );
#263 = CARTESIAN_POINT( '', ( 3.45269769441160, -2.14186746316434, 19.6084002374819 ) );
#264 = CARTESIAN_POINT( '', ( 3.73793702360195, -2.06931582321851, 19.6161894395119 ) );
#265 = CARTESIAN_POINT( '', ( 3.87543630644130, -2.02050630678259, 19.6213396061258 ) );
#266 = CARTESIAN_POINT( '', ( 4.14029501550630, -1.89801067606993, 19.6335674075852 ) );
#267 = CARTESIAN_POINT( '', ( 4.26896077588137, -1.82327846919235, 19.6407390039471 ) );
#268 = CARTESIAN_POINT( '', ( 4.50699246717684, -1.65250426390584, 19.6558439822655 ) );
#269 = CARTESIAN_POINT( '', ( 4.61667096325683, -1.55674717345791, 19.6637621629516 ) );
#270 = CARTESIAN_POINT( '', ( 4.81695375976692, -1.34397836637078, 19.6794493397027 ) );
#271 = CARTESIAN_POINT( '', ( 4.90799859654722, -1.22575223597587, 19.6872705165918 ) );
#272 = CARTESIAN_POINT( '', ( 5.06170178560914, -0.977432230365358, 19.7011602493993 ) );
#273 = CARTESIAN_POINT( '', ( 5.12555544169175, -0.846410887755922, 19.7073171169686 ) );
#274 = CARTESIAN_POINT( '', ( 5.27620494376227, -0.431697632964780, 19.7222158874805 ) );
#275 = CARTESIAN_POINT( '', ( 5.31741326473661, -0.135874584000231, 19.7267263088026 ) );
#276 = CARTESIAN_POINT( '', ( 5.28341037660749, 0.305447203355459, 19.7231835398652 ) );
#277 = CARTESIAN_POINT( '', ( 5.25662071977532, 0.449163783646228, 19.7203858605072 ) );
#278 = CARTESIAN_POINT( '', ( 5.17315684061035, 0.730047766289335, 19.7119861214127 ) );
#279 = CARTESIAN_POINT( '', ( 5.11574043025242, 0.867882772348542, 19.7063178569605 ) );
#280 = CARTESIAN_POINT( '', ( 4.90627878686292, 1.25343508958575, 19.6868169448643 ) );
#281 = CARTESIAN_POINT( '', ( 4.71201817487777, 1.48261889305962, 19.6700543736889 ) );
#282 = CARTESIAN_POINT( '', ( 4.36981852967204, 1.75648117874012, 19.6468519636153 ) );
#283 = CARTESIAN_POINT( '', ( 4.24531463607491, 1.83781804831667, 19.6393166589323 ) );
#284 = CARTESIAN_POINT( '', ( 3.98563044345384, 1.97442016510947, 19.6260540868546 ) );
#285 = CARTESIAN_POINT( '', ( 3.85060794057008, 2.03002289224470, 19.6203088181339 ) );
#286 = CARTESIAN_POINT( '', ( 3.57040807750918, 2.11639942235373, 19.6111795807147 ) );
#287 = CARTESIAN_POINT( '', ( 3.42457185916072, 2.14696540678269, 19.6078161126479 ) );
#288 = CARTESIAN_POINT( '', ( 3.13404414512942, 2.18071137013538, 19.6040916924376 ) );
#289 = CARTESIAN_POINT( '', ( 2.98799053736570, 2.18443850155430, 19.6036717933496 ) );
#290 = CARTESIAN_POINT( '', ( 2.69427524490659, 2.16513031419886, 19.6058136804108 ) );
#291 = CARTESIAN_POINT( '', ( 2.54786821341212, 2.14189806447806, 19.6083961294348 ) );
#292 = CARTESIAN_POINT( '', ( 2.26497814743297, 2.07016926041599, 19.6160986264006 ) );
#293 = CARTESIAN_POINT( '', ( 2.12713654227308, 2.02162350450315, 19.6212266754560 ) );
#294 = CARTESIAN_POINT( '', ( 1.72499046355167, 1.83585067108168, 19.6397751689734 ) );
#295 = CARTESIAN_POINT( '', ( 1.48522195233939, 1.66500293190734, 19.6557810425509 ) );
#296 = CARTESIAN_POINT( '', ( 1.18211377745560, 1.34298244827542, 19.6795225471203 ) );
#297 = CARTESIAN_POINT( '', ( 1.09317522395974, 1.22736441740608, 19.6871684578610 ) );
#298 = CARTESIAN_POINT( '', ( 0.939440212717246, 0.979557189662764, 19.7010530940224 ) );
#299 = CARTESIAN_POINT( '', ( 0.874091977163362, 0.845549047629885, 19.7073515811777 ) );
#300 = CARTESIAN_POINT( '', ( 0.774000311918791, 0.569795275331708, 19.7172511491918 ) );
#301 = CARTESIAN_POINT( '', ( 0.738781647548127, 0.428210096539108, 19.7208873201838 ) );
#302 = CARTESIAN_POINT( '', ( 0.698535018954316, 0.137478355481487, 19.7250566611085 ) );
#303 = CARTESIAN_POINT( '', ( 0.694020206462974, -0.0117707558658146, 19.7255350836158 ) );
#304 = CARTESIAN_POINT( '', ( 0.727539447732959, -0.449056444528904, 19.7220426135892 ) );
#305 = CARTESIAN_POINT( '', ( 0.813282043606575, -0.737649622497822, 19.7129215563545 ) );
#306 = CARTESIAN_POINT( '', ( 1.02550575936275, -1.12766365285796, 19.6931699898509 ) );
#307 = CARTESIAN_POINT( '', ( 1.20776801645732E-015, 19.7250000000000, 0.000000000000000 ) );
#308 = AXIS2_PLACEMENT_3D( '', #323, #324, #325 );
#309 = CARTESIAN_POINT( '', ( 6.00000000000000, 19.7250000000000, 0.000000000000000 ) );
#310 = AXIS2_PLACEMENT_3D( '', #326, #327, #328 );
#311 = COLOUR_RGB( '', 0.600000023841858, 0.666666686534882, 0.666666686534882 );
#312 = COLOUR_RGB( '', 0.600000023841858, 0.666666686534882, 0.666666686534882 );
#313 = CARTESIAN_POINT( '', ( 1.37900000000000, 1.68518870133883E-031, 19.0451634608570 ) );
#314 = AXIS2_PLACEMENT_3D( '', #329, #330, #331 );
#315 = COLOUR_RGB( '', 0.600000023841858, 0.666666686534882, 0.666666686534882 );
#316 = COLOUR_RGB( '', 0.184313729405403, 0.749019622802734, 0.580392181873322 );
#317 = CARTESIAN_POINT( '', ( 0.000000000000000, 0.000000000000000, -0.525000000000000 ) );
#318 = DIRECTION( '', ( -1.00000000000000, 6.12303176911189E-017, 0.000000000000000 ) );
#319 = DIRECTION( '', ( 6.12303176911189E-017, 1.00000000000000, 0.000000000000000 ) );
#320 = CARTESIAN_POINT( '', ( 6.00000000000000, 0.000000000000000, -0.525000000000000 ) );
#321 = DIRECTION( '', ( -1.00000000000000, 6.12303176911189E-017, 0.000000000000000 ) );
#322 = DIRECTION( '', ( 6.12303176911189E-017, 1.00000000000000, 0.000000000000000 ) );
#323 = CARTESIAN_POINT( '', ( 0.000000000000000, 0.000000000000000, 0.000000000000000 ) );
#324 = DIRECTION( '', ( -1.00000000000000, 6.12303176911189E-017, 0.000000000000000 ) );
#325 = DIRECTION( '', ( 6.12303176911189E-017, 1.00000000000000, 0.000000000000000 ) );
#326 = CARTESIAN_POINT( '', ( 6.00000000000000, 0.000000000000000, 0.000000000000000 ) );
#327 = DIRECTION( '', ( -1.00000000000000, 6.12303176911189E-017, 0.000000000000000 ) );
#328 = DIRECTION( '', ( 6.12303176911189E-017, 1.00000000000000, 0.000000000000000 ) );
#329 = CARTESIAN_POINT( '', ( 3.00000000000000, 1.68518870133883E-031, 19.0451634608570 ) );
#330 = DIRECTION( '', ( 0.000000000000000, 0.000000000000000, -1.00000000000000 ) );
#331 = DIRECTION( '', ( -1.00000000000000, 0.000000000000000, 0.000000000000000 ) );
ENDSEC;
END-ISO-10303-21;
