ISO-10303-21;
HEADER;
FILE_DESCRIPTION(
/* description */ (''),
/* implementation_level */ '2;1');
FILE_NAME(
/* name */ '190806000.stp',
/* time_stamp */ '2022-02-25T10:33:39',
/* author */ ('LRA'),
/* organization */ ('REGO-FIX'),
/* preprocessor_version */ ' Unknown',
/* originating_system */ 'SIEMENS PLM Software Solid Edge ST10',
/* authorization */ 'Unknown');
FILE_SCHEMA (('AUTOMOTIVE_DESIGN { 1 0 10303 214 2 1 1}'));
ENDSEC;
DATA;
#10=PROPERTY_DEFINITION_REPRESENTATION(#14,#12);
#11=PROPERTY_DEFINITION_REPRESENTATION(#15,#13);
#12=REPRESENTATION('',(#16),#497);
#13=REPRESENTATION('',(#17),#497);
#14=PROPERTY_DEFINITION('pmi validation property','',#502);
#15=PROPERTY_DEFINITION('pmi validation property','',#502);
#16=VALUE_REPRESENTATION_ITEM('number of annotations',COUNT_MEASURE(0.));
#17=VALUE_REPRESENTATION_ITEM('number of views',COUNT_MEASURE(0.));
#18=SHAPE_REPRESENTATION_RELATIONSHIP('','',#284,#19);
#19=ADVANCED_BREP_SHAPE_REPRESENTATION('',(#282),#497);
#20=TOROIDAL_SURFACE('',#309,4.31715728752538,0.2);
#21=TOROIDAL_SURFACE('',#313,4.275,0.4);
#22=TOROIDAL_SURFACE('',#317,4.175,0.3);
#23=TOROIDAL_SURFACE('',#321,4.80073593128807,0.3);
#24=TOROIDAL_SURFACE('',#322,3.39944465005348,0.3);
#25=TOROIDAL_SURFACE('',#323,4.85073593128806,0.3);
#26=TOROIDAL_SURFACE('',#324,5.175,0.3);
#27=TOROIDAL_SURFACE('',#325,5.175,0.3);
#28=CYLINDRICAL_SURFACE('',#298,5.475);
#29=CYLINDRICAL_SURFACE('',#315,3.875);
#30=CYLINDRICAL_SURFACE('',#328,3.);
#31=CYLINDRICAL_SURFACE('',#331,3.999);
#32=PLANE('',#292);
#33=PLANE('',#304);
#34=PLANE('',#311);
#35=PLANE('',#318);
#36=ORIENTED_EDGE('',*,*,#82,.T.);
#37=ORIENTED_EDGE('',*,*,#83,.F.);
#38=ORIENTED_EDGE('',*,*,#84,.T.);
#39=ORIENTED_EDGE('',*,*,#85,.F.);
#40=ORIENTED_EDGE('',*,*,#86,.T.);
#41=ORIENTED_EDGE('',*,*,#87,.T.);
#42=ORIENTED_EDGE('',*,*,#88,.T.);
#43=ORIENTED_EDGE('',*,*,#89,.T.);
#44=ORIENTED_EDGE('',*,*,#90,.T.);
#45=ORIENTED_EDGE('',*,*,#91,.T.);
#46=ORIENTED_EDGE('',*,*,#92,.T.);
#47=ORIENTED_EDGE('',*,*,#93,.T.);
#48=ORIENTED_EDGE('',*,*,#94,.T.);
#49=ORIENTED_EDGE('',*,*,#95,.F.);
#50=ORIENTED_EDGE('',*,*,#96,.F.);
#51=ORIENTED_EDGE('',*,*,#95,.T.);
#52=ORIENTED_EDGE('',*,*,#97,.F.);
#53=ORIENTED_EDGE('',*,*,#96,.T.);
#54=ORIENTED_EDGE('',*,*,#98,.F.);
#55=ORIENTED_EDGE('',*,*,#97,.T.);
#56=ORIENTED_EDGE('',*,*,#99,.F.);
#57=ORIENTED_EDGE('',*,*,#98,.T.);
#58=ORIENTED_EDGE('',*,*,#100,.F.);
#59=ORIENTED_EDGE('',*,*,#99,.T.);
#60=ORIENTED_EDGE('',*,*,#82,.F.);
#61=ORIENTED_EDGE('',*,*,#100,.T.);
#62=ORIENTED_EDGE('',*,*,#101,.F.);
#63=ORIENTED_EDGE('',*,*,#102,.T.);
#64=ORIENTED_EDGE('',*,*,#87,.F.);
#65=ORIENTED_EDGE('',*,*,#89,.F.);
#66=ORIENTED_EDGE('',*,*,#84,.F.);
#67=ORIENTED_EDGE('',*,*,#102,.F.);
#68=ORIENTED_EDGE('',*,*,#93,.F.);
#69=ORIENTED_EDGE('',*,*,#94,.F.);
#70=ORIENTED_EDGE('',*,*,#91,.F.);
#71=ORIENTED_EDGE('',*,*,#92,.F.);
#72=ORIENTED_EDGE('',*,*,#88,.F.);
#73=ORIENTED_EDGE('',*,*,#90,.F.);
#74=ORIENTED_EDGE('',*,*,#103,.F.);
#75=ORIENTED_EDGE('',*,*,#101,.T.);
#76=ORIENTED_EDGE('',*,*,#104,.F.);
#77=ORIENTED_EDGE('',*,*,#103,.T.);
#78=ORIENTED_EDGE('',*,*,#86,.F.);
#79=ORIENTED_EDGE('',*,*,#104,.T.);
#80=ORIENTED_EDGE('',*,*,#83,.T.);
#81=ORIENTED_EDGE('',*,*,#85,.T.);
#82=EDGE_CURVE('',#105,#105,#128,.T.);
#83=EDGE_CURVE('',#106,#106,#129,.T.);
#84=EDGE_CURVE('',#107,#107,#130,.F.);
#85=EDGE_CURVE('',#108,#108,#131,.T.);
#86=EDGE_CURVE('',#109,#109,#132,.T.);
#87=EDGE_CURVE('',#110,#110,#133,.F.);
#88=EDGE_CURVE('',#111,#111,#134,.T.);
#89=EDGE_CURVE('',#112,#112,#135,.F.);
#90=EDGE_CURVE('',#113,#113,#136,.F.);
#91=EDGE_CURVE('',#114,#114,#137,.T.);
#92=EDGE_CURVE('',#115,#115,#138,.T.);
#93=EDGE_CURVE('',#116,#116,#139,.F.);
#94=EDGE_CURVE('',#117,#117,#140,.F.);
#95=EDGE_CURVE('',#118,#118,#141,.T.);
#96=EDGE_CURVE('',#119,#119,#142,.T.);
#97=EDGE_CURVE('',#120,#120,#143,.T.);
#98=EDGE_CURVE('',#121,#121,#144,.T.);
#99=EDGE_CURVE('',#122,#122,#145,.T.);
#100=EDGE_CURVE('',#123,#123,#146,.T.);
#101=EDGE_CURVE('',#124,#124,#147,.T.);
#102=EDGE_CURVE('',#125,#125,#148,.F.);
#103=EDGE_CURVE('',#126,#126,#149,.T.);
#104=EDGE_CURVE('',#127,#127,#150,.T.);
#105=VERTEX_POINT('',#429);
#106=VERTEX_POINT('',#431);
#107=VERTEX_POINT('',#434);
#108=VERTEX_POINT('',#436);
#109=VERTEX_POINT('',#439);
#110=VERTEX_POINT('',#441);
#111=VERTEX_POINT('',#444);
#112=VERTEX_POINT('',#446);
#113=VERTEX_POINT('',#449);
#114=VERTEX_POINT('',#451);
#115=VERTEX_POINT('',#454);
#116=VERTEX_POINT('',#456);
#117=VERTEX_POINT('',#459);
#118=VERTEX_POINT('',#461);
#119=VERTEX_POINT('',#464);
#120=VERTEX_POINT('',#467);
#121=VERTEX_POINT('',#470);
#122=VERTEX_POINT('',#473);
#123=VERTEX_POINT('',#476);
#124=VERTEX_POINT('',#480);
#125=VERTEX_POINT('',#482);
#126=VERTEX_POINT('',#490);
#127=VERTEX_POINT('',#493);
#128=CIRCLE('',#287,3.88522225211328);
#129=CIRCLE('',#288,3.999);
#130=CIRCLE('',#290,3.65925227118881);
#131=CIRCLE('',#291,3.999);
#132=CIRCLE('',#293,3.34641016151377);
#133=CIRCLE('',#294,4.80073593128807);
#134=CIRCLE('',#296,5.38713203435596);
#135=CIRCLE('',#297,5.01286796564404);
#136=CIRCLE('',#299,5.475);
#137=CIRCLE('',#300,5.475);
#138=CIRCLE('',#302,5.38713203435596);
#139=CIRCLE('',#303,5.06286796564402);
#140=CIRCLE('',#305,4.85073593128806);
#141=CIRCLE('',#306,4.5);
#142=CIRCLE('',#308,4.45857864376269);
#143=CIRCLE('',#310,4.31715728752538);
#144=CIRCLE('',#312,4.275);
#145=CIRCLE('',#314,3.875);
#146=CIRCLE('',#316,3.875);
#147=CIRCLE('',#319,3.28867513459481);
#148=CIRCLE('',#320,3.39944465005348);
#149=CIRCLE('',#327,3.);
#150=CIRCLE('',#329,3.);
#151=EDGE_LOOP('',(#36));
#152=EDGE_LOOP('',(#37));
#153=EDGE_LOOP('',(#38));
#154=EDGE_LOOP('',(#39));
#155=EDGE_LOOP('',(#40));
#156=EDGE_LOOP('',(#41));
#157=EDGE_LOOP('',(#42));
#158=EDGE_LOOP('',(#43));
#159=EDGE_LOOP('',(#44));
#160=EDGE_LOOP('',(#45));
#161=EDGE_LOOP('',(#46));
#162=EDGE_LOOP('',(#47));
#163=EDGE_LOOP('',(#48));
#164=EDGE_LOOP('',(#49));
#165=EDGE_LOOP('',(#50));
#166=EDGE_LOOP('',(#51));
#167=EDGE_LOOP('',(#52));
#168=EDGE_LOOP('',(#53));
#169=EDGE_LOOP('',(#54));
#170=EDGE_LOOP('',(#55));
#171=EDGE_LOOP('',(#56));
#172=EDGE_LOOP('',(#57));
#173=EDGE_LOOP('',(#58));
#174=EDGE_LOOP('',(#59));
#175=EDGE_LOOP('',(#60));
#176=EDGE_LOOP('',(#61));
#177=EDGE_LOOP('',(#62));
#178=EDGE_LOOP('',(#63));
#179=EDGE_LOOP('',(#64));
#180=EDGE_LOOP('',(#65));
#181=EDGE_LOOP('',(#66));
#182=EDGE_LOOP('',(#67));
#183=EDGE_LOOP('',(#68));
#184=EDGE_LOOP('',(#69));
#185=EDGE_LOOP('',(#70));
#186=EDGE_LOOP('',(#71));
#187=EDGE_LOOP('',(#72));
#188=EDGE_LOOP('',(#73));
#189=EDGE_LOOP('',(#74));
#190=EDGE_LOOP('',(#75));
#191=EDGE_LOOP('',(#76));
#192=EDGE_LOOP('',(#77));
#193=EDGE_LOOP('',(#78));
#194=EDGE_LOOP('',(#79));
#195=EDGE_LOOP('',(#80));
#196=EDGE_LOOP('',(#81));
#197=FACE_BOUND('',#151,.T.);
#198=FACE_BOUND('',#152,.T.);
#199=FACE_BOUND('',#153,.T.);
#200=FACE_BOUND('',#154,.T.);
#201=FACE_BOUND('',#155,.T.);
#202=FACE_BOUND('',#156,.T.);
#203=FACE_BOUND('',#157,.T.);
#204=FACE_BOUND('',#158,.T.);
#205=FACE_BOUND('',#159,.T.);
#206=FACE_BOUND('',#160,.T.);
#207=FACE_BOUND('',#161,.T.);
#208=FACE_BOUND('',#162,.T.);
#209=FACE_BOUND('',#163,.T.);
#210=FACE_BOUND('',#164,.T.);
#211=FACE_BOUND('',#165,.T.);
#212=FACE_BOUND('',#166,.T.);
#213=FACE_BOUND('',#167,.T.);
#214=FACE_BOUND('',#168,.T.);
#215=FACE_BOUND('',#169,.T.);
#216=FACE_BOUND('',#170,.T.);
#217=FACE_BOUND('',#171,.T.);
#218=FACE_BOUND('',#172,.T.);
#219=FACE_BOUND('',#173,.T.);
#220=FACE_BOUND('',#174,.T.);
#221=FACE_BOUND('',#175,.T.);
#222=FACE_BOUND('',#176,.T.);
#223=FACE_BOUND('',#177,.T.);
#224=FACE_BOUND('',#178,.T.);
#225=FACE_BOUND('',#179,.T.);
#226=FACE_BOUND('',#180,.T.);
#227=FACE_BOUND('',#181,.T.);
#228=FACE_BOUND('',#182,.T.);
#229=FACE_BOUND('',#183,.T.);
#230=FACE_BOUND('',#184,.T.);
#231=FACE_BOUND('',#185,.T.);
#232=FACE_BOUND('',#186,.T.);
#233=FACE_BOUND('',#187,.T.);
#234=FACE_BOUND('',#188,.T.);
#235=FACE_BOUND('',#189,.T.);
#236=FACE_BOUND('',#190,.T.);
#237=FACE_BOUND('',#191,.T.);
#238=FACE_BOUND('',#192,.T.);
#239=FACE_BOUND('',#193,.T.);
#240=FACE_BOUND('',#194,.T.);
#241=FACE_BOUND('',#195,.T.);
#242=FACE_BOUND('',#196,.T.);
#243=CONICAL_SURFACE('',#286,3.88522225211328,0.261799387799149);
#244=CONICAL_SURFACE('',#289,4.15,0.5235987755983);
#245=CONICAL_SURFACE('',#295,4.925,0.785398163397448);
#246=CONICAL_SURFACE('',#301,5.475,0.785398163397459);
#247=CONICAL_SURFACE('',#307,4.5,0.785398163397453);
#248=CONICAL_SURFACE('',#326,3.28867513459481,0.523598775598299);
#249=CONICAL_SURFACE('',#330,3.,0.523598775598299);
#250=ADVANCED_FACE('',(#197,#198),#243,.T.);
#251=ADVANCED_FACE('',(#199,#200),#244,.T.);
#252=ADVANCED_FACE('',(#201,#202),#32,.F.);
#253=ADVANCED_FACE('',(#203,#204),#245,.T.);
#254=ADVANCED_FACE('',(#205,#206),#28,.T.);
#255=ADVANCED_FACE('',(#207,#208),#246,.T.);
#256=ADVANCED_FACE('',(#209,#210),#33,.F.);
#257=ADVANCED_FACE('',(#211,#212),#247,.F.);
#258=ADVANCED_FACE('',(#213,#214),#20,.F.);
#259=ADVANCED_FACE('',(#215,#216),#34,.F.);
#260=ADVANCED_FACE('',(#217,#218),#21,.F.);
#261=ADVANCED_FACE('',(#219,#220),#29,.T.);
#262=ADVANCED_FACE('',(#221,#222),#22,.F.);
#263=ADVANCED_FACE('',(#223,#224),#35,.F.);
#264=ADVANCED_FACE('',(#225,#226),#23,.T.);
#265=ADVANCED_FACE('',(#227,#228),#24,.T.);
#266=ADVANCED_FACE('',(#229,#230),#25,.T.);
#267=ADVANCED_FACE('',(#231,#232),#26,.T.);
#268=ADVANCED_FACE('',(#233,#234),#27,.T.);
#269=ADVANCED_FACE('',(#235,#236),#248,.F.);
#270=ADVANCED_FACE('',(#237,#238),#30,.F.);
#271=ADVANCED_FACE('',(#239,#240),#249,.F.);
#272=ADVANCED_FACE('',(#241,#242),#31,.T.);
#273=CLOSED_SHELL('',(#250,#251,#252,#253,#254,#255,#256,#257,#258,#259,
#260,#261,#262,#263,#264,#265,#266,#267,#268,#269,#270,#271,#272));
#274=STYLED_ITEM('',(#275),#282);
#275=PRESENTATION_STYLE_ASSIGNMENT((#276));
#276=SURFACE_STYLE_USAGE(.BOTH.,#277);
#277=SURFACE_SIDE_STYLE('',(#278));
#278=SURFACE_STYLE_FILL_AREA(#279);
#279=FILL_AREA_STYLE('',(#280));
#280=FILL_AREA_STYLE_COLOUR('',#281);
#281=COLOUR_RGB( ' ', 0.5, 0.5, 0.5 );
#282=MANIFOLD_SOLID_BREP('NOCUT',#273);
#283=SHAPE_DEFINITION_REPRESENTATION(#502,#284);
#284=SHAPE_REPRESENTATION('190806000',(#285),#497);
#285=AXIS2_PLACEMENT_3D('',#426,#332,#333);
#286=AXIS2_PLACEMENT_3D('',#427,#334,#335);
#287=AXIS2_PLACEMENT_3D('',#428,#336,#337);
#288=AXIS2_PLACEMENT_3D('',#430,#338,#339);
#289=AXIS2_PLACEMENT_3D('',#432,#340,#341);
#290=AXIS2_PLACEMENT_3D('',#433,#342,#343);
#291=AXIS2_PLACEMENT_3D('',#435,#344,#345);
#292=AXIS2_PLACEMENT_3D('',#437,#346,#347);
#293=AXIS2_PLACEMENT_3D('',#438,#348,#349);
#294=AXIS2_PLACEMENT_3D('',#440,#350,#351);
#295=AXIS2_PLACEMENT_3D('',#442,#352,#353);
#296=AXIS2_PLACEMENT_3D('',#443,#354,#355);
#297=AXIS2_PLACEMENT_3D('',#445,#356,#357);
#298=AXIS2_PLACEMENT_3D('',#447,#358,#359);
#299=AXIS2_PLACEMENT_3D('',#448,#360,#361);
#300=AXIS2_PLACEMENT_3D('',#450,#362,#363);
#301=AXIS2_PLACEMENT_3D('',#452,#364,#365);
#302=AXIS2_PLACEMENT_3D('',#453,#366,#367);
#303=AXIS2_PLACEMENT_3D('',#455,#368,#369);
#304=AXIS2_PLACEMENT_3D('',#457,#370,#371);
#305=AXIS2_PLACEMENT_3D('',#458,#372,#373);
#306=AXIS2_PLACEMENT_3D('',#460,#374,#375);
#307=AXIS2_PLACEMENT_3D('',#462,#376,#377);
#308=AXIS2_PLACEMENT_3D('',#463,#378,#379);
#309=AXIS2_PLACEMENT_3D('',#465,#380,#381);
#310=AXIS2_PLACEMENT_3D('',#466,#382,#383);
#311=AXIS2_PLACEMENT_3D('',#468,#384,#385);
#312=AXIS2_PLACEMENT_3D('',#469,#386,#387);
#313=AXIS2_PLACEMENT_3D('',#471,#388,#389);
#314=AXIS2_PLACEMENT_3D('',#472,#390,#391);
#315=AXIS2_PLACEMENT_3D('',#474,#392,#393);
#316=AXIS2_PLACEMENT_3D('',#475,#394,#395);
#317=AXIS2_PLACEMENT_3D('',#477,#396,#397);
#318=AXIS2_PLACEMENT_3D('',#478,#398,#399);
#319=AXIS2_PLACEMENT_3D('',#479,#400,#401);
#320=AXIS2_PLACEMENT_3D('',#481,#402,#403);
#321=AXIS2_PLACEMENT_3D('',#483,#404,#405);
#322=AXIS2_PLACEMENT_3D('',#484,#406,#407);
#323=AXIS2_PLACEMENT_3D('',#485,#408,#409);
#324=AXIS2_PLACEMENT_3D('',#486,#410,#411);
#325=AXIS2_PLACEMENT_3D('',#487,#412,#413);
#326=AXIS2_PLACEMENT_3D('',#488,#414,#415);
#327=AXIS2_PLACEMENT_3D('',#489,#416,#417);
#328=AXIS2_PLACEMENT_3D('',#491,#418,#419);
#329=AXIS2_PLACEMENT_3D('',#492,#420,#421);
#330=AXIS2_PLACEMENT_3D('',#494,#422,#423);
#331=AXIS2_PLACEMENT_3D('',#495,#424,#425);
#332=DIRECTION('',(0.,0.,1.));
#333=DIRECTION('',(1.,0.,0.));
#334=DIRECTION('',(0.,0.,1.));
#335=DIRECTION('',(1.,0.,0.));
#336=DIRECTION('',(0.,0.,1.));
#337=DIRECTION('',(1.,0.,0.));
#338=DIRECTION('',(0.,0.,1.));
#339=DIRECTION('',(1.,0.,0.));
#340=DIRECTION('',(0.,0.,-1.));
#341=DIRECTION('',(-1.,0.,0.));
#342=DIRECTION('',(0.,0.,1.));
#343=DIRECTION('',(1.,0.,0.));
#344=DIRECTION('',(0.,0.,-1.));
#345=DIRECTION('',(-1.,0.,0.));
#346=DIRECTION('',(0.,0.,1.));
#347=DIRECTION('',(1.,0.,0.));
#348=DIRECTION('',(0.,0.,1.));
#349=DIRECTION('',(1.,0.,0.));
#350=DIRECTION('',(0.,0.,1.));
#351=DIRECTION('',(1.,0.,0.));
#352=DIRECTION('',(0.,0.,1.));
#353=DIRECTION('',(1.,0.,0.));
#354=DIRECTION('',(0.,0.,-1.));
#355=DIRECTION('',(-1.,0.,0.));
#356=DIRECTION('',(0.,0.,-1.));
#357=DIRECTION('',(-1.,0.,0.));
#358=DIRECTION('',(0.,0.,1.));
#359=DIRECTION('',(1.,0.,0.));
#360=DIRECTION('',(0.,0.,-1.));
#361=DIRECTION('',(-1.,0.,0.));
#362=DIRECTION('',(0.,0.,-1.));
#363=DIRECTION('',(-1.,0.,0.));
#364=DIRECTION('',(0.,0.,-1.));
#365=DIRECTION('',(-1.,0.,0.));
#366=DIRECTION('',(0.,0.,1.));
#367=DIRECTION('',(1.,0.,0.));
#368=DIRECTION('',(0.,0.,1.));
#369=DIRECTION('',(1.,0.,0.));
#370=DIRECTION('',(0.,0.,-1.));
#371=DIRECTION('',(-1.,0.,0.));
#372=DIRECTION('',(0.,0.,-1.));
#373=DIRECTION('',(-1.,0.,0.));
#374=DIRECTION('',(0.,0.,1.));
#375=DIRECTION('',(1.,0.,0.));
#376=DIRECTION('',(0.,0.,1.));
#377=DIRECTION('',(1.,0.,0.));
#378=DIRECTION('',(0.,0.,1.));
#379=DIRECTION('',(1.,0.,0.));
#380=DIRECTION('',(0.,0.,1.));
#381=DIRECTION('',(1.,0.,0.));
#382=DIRECTION('',(0.,0.,1.));
#383=DIRECTION('',(1.,0.,0.));
#384=DIRECTION('',(0.,0.,-1.));
#385=DIRECTION('',(-1.,0.,0.));
#386=DIRECTION('',(0.,0.,1.));
#387=DIRECTION('',(1.,0.,0.));
#388=DIRECTION('',(0.,0.,1.));
#389=DIRECTION('',(1.,0.,0.));
#390=DIRECTION('',(0.,0.,1.));
#391=DIRECTION('',(1.,0.,0.));
#392=DIRECTION('',(0.,0.,1.));
#393=DIRECTION('',(1.,0.,0.));
#394=DIRECTION('',(0.,0.,1.));
#395=DIRECTION('',(1.,0.,0.));
#396=DIRECTION('',(0.,0.,1.));
#397=DIRECTION('',(1.,0.,0.));
#398=DIRECTION('',(0.,0.,-1.));
#399=DIRECTION('',(-1.,0.,0.));
#400=DIRECTION('',(0.,0.,1.));
#401=DIRECTION('',(1.,0.,0.));
#402=DIRECTION('',(0.,0.,-1.));
#403=DIRECTION('',(-1.,0.,0.));
#404=DIRECTION('',(0.,0.,1.));
#405=DIRECTION('',(1.,0.,0.));
#406=DIRECTION('',(0.,0.,-1.));
#407=DIRECTION('',(-1.,0.,0.));
#408=DIRECTION('',(0.,0.,-1.));
#409=DIRECTION('',(-1.,0.,0.));
#410=DIRECTION('',(0.,0.,-1.));
#411=DIRECTION('',(-1.,0.,0.));
#412=DIRECTION('',(0.,0.,-1.));
#413=DIRECTION('',(-1.,0.,0.));
#414=DIRECTION('',(0.,0.,1.));
#415=DIRECTION('',(1.,0.,0.));
#416=DIRECTION('',(0.,0.,1.));
#417=DIRECTION('',(1.,0.,0.));
#418=DIRECTION('',(0.,0.,1.));
#419=DIRECTION('',(1.,0.,0.));
#420=DIRECTION('',(0.,0.,1.));
#421=DIRECTION('',(1.,0.,0.));
#422=DIRECTION('',(0.,0.,-1.));
#423=DIRECTION('',(-1.,0.,0.));
#424=DIRECTION('',(0.,0.,1.));
#425=DIRECTION('',(1.,0.,0.));
#426=CARTESIAN_POINT('',(0.,0.,0.));
#427=CARTESIAN_POINT('',(0.,0.,0.511835992173096));
#428=CARTESIAN_POINT('',(0.,0.,0.511835992173096));
#429=CARTESIAN_POINT('',(3.88522225211328,0.,0.511835992173096));
#430=CARTESIAN_POINT('',(0.,0.,0.936460328057099));
#431=CARTESIAN_POINT('',(3.999,0.,0.936460328057099));
#432=CARTESIAN_POINT('',(0.,0.,26.));
#433=CARTESIAN_POINT('',(0.,0.,26.85));
#434=CARTESIAN_POINT('',(3.65925227118881,0.,26.85));
#435=CARTESIAN_POINT('',(0.,0.,26.2615396719429));
#436=CARTESIAN_POINT('',(-3.999,0.,26.2615396719429));
#437=CARTESIAN_POINT('',(0.,0.,-3.05));
#438=CARTESIAN_POINT('',(-4.33680868994202E-16,0.,-3.05));
#439=CARTESIAN_POINT('',(3.34641016151377,0.,-3.05));
#440=CARTESIAN_POINT('',(0.,0.,-3.05));
#441=CARTESIAN_POINT('',(4.80073593128807,0.,-3.05));
#442=CARTESIAN_POINT('',(0.,0.,-3.05));
#443=CARTESIAN_POINT('',(0.,0.,-2.58786796564404));
#444=CARTESIAN_POINT('',(-5.38713203435596,0.,-2.58786796564404));
#445=CARTESIAN_POINT('',(0.,0.,-2.96213203435596));
#446=CARTESIAN_POINT('',(-5.01286796564404,0.,-2.96213203435596));
#447=CARTESIAN_POINT('',(0.,0.,0.));
#448=CARTESIAN_POINT('',(0.,0.,-2.37573593128807));
#449=CARTESIAN_POINT('',(-5.475,0.,-2.37573593128807));
#450=CARTESIAN_POINT('',(0.,0.,-0.624264068711931));
#451=CARTESIAN_POINT('',(-5.475,0.,-0.624264068711931));
#452=CARTESIAN_POINT('',(0.,0.,-0.5));
#453=CARTESIAN_POINT('',(0.,0.,-0.412132034355964));
#454=CARTESIAN_POINT('',(5.38713203435596,0.,-0.412132034355964));
#455=CARTESIAN_POINT('',(0.,0.,-8.78679656440328E-02));
#456=CARTESIAN_POINT('',(5.06286796564402,0.,-8.78679656440328E-02));
#457=CARTESIAN_POINT('',(4.97499999999999,0.,-5.42101086242752E-17));
#458=CARTESIAN_POINT('',(0.,0.,-5.42101086242752E-17));
#459=CARTESIAN_POINT('',(-4.85073593128806,0.,-5.42101086242752E-17));
#460=CARTESIAN_POINT('',(0.,0.,-1.0842021724855E-16));
#461=CARTESIAN_POINT('',(4.5,0.,-1.0842021724855E-16));
#462=CARTESIAN_POINT('',(0.,0.,-1.0842021724855E-16));
#463=CARTESIAN_POINT('',(0.,0.,-0.04142135623731));
#464=CARTESIAN_POINT('',(4.45857864376269,0.,-0.04142135623731));
#465=CARTESIAN_POINT('',(0.,0.,9.99999999999997E-02));
#466=CARTESIAN_POINT('',(0.,0.,-0.1));
#467=CARTESIAN_POINT('',(4.31715728752538,0.,-0.1));
#468=CARTESIAN_POINT('',(4.31715728752538,0.,-0.1));
#469=CARTESIAN_POINT('',(0.,0.,-0.1));
#470=CARTESIAN_POINT('',(4.275,0.,-0.1));
#471=CARTESIAN_POINT('',(0.,0.,0.3));
#472=CARTESIAN_POINT('',(0.,0.,0.3));
#473=CARTESIAN_POINT('',(3.875,0.,0.3));
#474=CARTESIAN_POINT('',(0.,0.,0.));
#475=CARTESIAN_POINT('',(0.,0.,0.434190278642339));
#476=CARTESIAN_POINT('',(3.875,0.,0.434190278642339));
#477=CARTESIAN_POINT('',(0.,0.,0.434190278642339));
#478=CARTESIAN_POINT('',(3.57264973081037,0.,27.));
#479=CARTESIAN_POINT('',(-4.33680868994202E-16,0.,27.));
#480=CARTESIAN_POINT('',(3.28867513459481,0.,27.));
#481=CARTESIAN_POINT('',(0.,0.,27.));
#482=CARTESIAN_POINT('',(-3.39944465005348,0.,27.));
#483=CARTESIAN_POINT('',(0.,0.,-2.75));
#484=CARTESIAN_POINT('',(0.,0.,26.7));
#485=CARTESIAN_POINT('',(0.,0.,-0.3));
#486=CARTESIAN_POINT('',(0.,0.,-0.624264068711931));
#487=CARTESIAN_POINT('',(0.,0.,-2.37573593128807));
#488=CARTESIAN_POINT('',(-4.33680868994202E-16,0.,27.));
#489=CARTESIAN_POINT('',(-4.33680868994202E-16,0.,26.5));
#490=CARTESIAN_POINT('',(3.,0.,26.5));
#491=CARTESIAN_POINT('',(-4.33680868994202E-16,0.,-3.05));
#492=CARTESIAN_POINT('',(-4.33680868994202E-16,0.,-2.45));
#493=CARTESIAN_POINT('',(3.,0.,-2.45));
#494=CARTESIAN_POINT('',(-4.33680868994202E-16,0.,-2.45));
#495=CARTESIAN_POINT('',(0.,0.,0.));
#496=MECHANICAL_DESIGN_GEOMETRIC_PRESENTATION_REPRESENTATION('',(#274),
#497);
#497=(
GEOMETRIC_REPRESENTATION_CONTEXT(3)
GLOBAL_UNCERTAINTY_ASSIGNED_CONTEXT((#498))
GLOBAL_UNIT_ASSIGNED_CONTEXT((#501,#500,#499))
REPRESENTATION_CONTEXT('190806000','TOP_LEVEL_ASSEMBLY_PART')
);
#498=UNCERTAINTY_MEASURE_WITH_UNIT(LENGTH_MEASURE(0.005),#501,
'DISTANCE_ACCURACY_VALUE','Maximum Tolerance applied to model');
#499=(
NAMED_UNIT(*)
SI_UNIT($,.STERADIAN.)
SOLID_ANGLE_UNIT()
);
#500=(
NAMED_UNIT(*)
PLANE_ANGLE_UNIT()
SI_UNIT($,.RADIAN.)
);
#501=(
LENGTH_UNIT()
NAMED_UNIT(*)
SI_UNIT(.MILLI.,.METRE.)
);
#502=PRODUCT_DEFINITION_SHAPE('','',#503);
#503=PRODUCT_DEFINITION('','',#505,#504);
#504=PRODUCT_DEFINITION_CONTEXT('',#511,'design');
#505=PRODUCT_DEFINITION_FORMATION_WITH_SPECIFIED_SOURCE('','',#507,
 .NOT_KNOWN.);
#506=PRODUCT_RELATED_PRODUCT_CATEGORY('','',(#507));
#507=PRODUCT('NOCUT','NOCUT','NOCUT',(#509));
#508=PRODUCT_CATEGORY('','');
#509=PRODUCT_CONTEXT('',#511,'mechanical');
#510=APPLICATION_PROTOCOL_DEFINITION('international standard',
'automotive_design',2010,#511);
#511=APPLICATION_CONTEXT(
'core data for automotive mechanical design processes');
#512=AXIS2_PLACEMENT_3D('PCS',#513,#514,#515);
#513=CARTESIAN_POINT('',(0.,0.,27.));
#514=DIRECTION('',(0.,0.,1.));
#515=DIRECTION('',(1.,0.,0.));
#516=AXIS2_PLACEMENT_3D('MCS',#517,#518,#519);
#517=CARTESIAN_POINT('',(0.,0.,0.));
#518=DIRECTION('',(0.,0.,1.));
#519=DIRECTION('',(1.,0.,0.));
#520=AXIS2_PLACEMENT_3D('CSW',#521,#522,#523);
#521=CARTESIAN_POINT('',(0.,0.,-3.));
#522=DIRECTION('',(0.,0.,1.));
#523=DIRECTION('',(1.,0.,0.));
#524=CONSTRUCTIVE_GEOMETRY_REPRESENTATION_RELATIONSHIP('coordinate systems',$,#19,#525);
#525=CONSTRUCTIVE_GEOMETRY_REPRESENTATION('coordinate systems',(#512, #516, #520),#497);
ENDSEC;
END-ISO-10303-21;

