ISO-10303-21;
HEADER;
FILE_DESCRIPTION(
/* description */ (''),
/* implementation_level */ '2;1');
FILE_NAME(
/* name */ '261070620.stp',
/* time_stamp */ '2021-01-08T12:27:21',
/* author */ ('LRA'),
/* organization */ ('REGO-FIX'),
/* preprocessor_version */ ' Unknown',
/* originating_system */ 'SIEMENS PLM Software Solid Edge ST10',
/* authorization */ 'Unknown');
FILE_SCHEMA (('AUTOMOTIVE_DESIGN { 1 0 10303 214 2 1 1}'));
ENDSEC;
DATA;
#10=PROPERTY_DEFINITION_REPRESENTATION(#14,#12);
#11=PROPERTY_DEFINITION_REPRESENTATION(#15,#13);
#12=REPRESENTATION('',(#16),#704);
#13=REPRESENTATION('',(#17),#704);
#14=PROPERTY_DEFINITION('pmi validation property','',#709);
#15=PROPERTY_DEFINITION('pmi validation property','',#709);
#16=VALUE_REPRESENTATION_ITEM('number of annotations',COUNT_MEASURE(0.));
#17=VALUE_REPRESENTATION_ITEM('number of views',COUNT_MEASURE(0.));
#18=SHAPE_REPRESENTATION_RELATIONSHIP('','',#455,#19);
#19=ADVANCED_BREP_SHAPE_REPRESENTATION('',(#453),#704);
#20=CONICAL_SURFACE('',#469,5.,1.0471975511966);
#21=CONICAL_SURFACE('',#470,3.125,0.00500036830696405);
#22=CONICAL_SURFACE('',#477,3.15,1.0471975511966);
#23=CONICAL_SURFACE('',#484,2.75,1.0471975511966);
#24=CONICAL_SURFACE('',#491,5.,0.785398163397622);
#25=CONICAL_SURFACE('',#500,4.8,0.785398163397433);
#26=CONICAL_SURFACE('',#508,5.,0.785398163397437);
#27=CONICAL_SURFACE('',#510,4.5,0.785398163397449);
#28=PLANE('',#463);
#29=PLANE('',#466);
#30=PLANE('',#473);
#31=PLANE('',#488);
#32=PLANE('',#498);
#33=PLANE('',#506);
#34=TOROIDAL_SURFACE('',#460,4.5,0.5);
#35=TOROIDAL_SURFACE('',#479,4.1209996720134,1.);
#36=TOROIDAL_SURFACE('',#480,3.55,0.8);
#37=TOROIDAL_SURFACE('',#495,4.10000000000001,0.1);
#38=TOROIDAL_SURFACE('',#504,4.10000000000001,0.1);
#39=STYLED_ITEM('',(#58),#426);
#40=STYLED_ITEM('',(#59),#427);
#41=STYLED_ITEM('',(#60),#429);
#42=STYLED_ITEM('',(#61),#430);
#43=STYLED_ITEM('',(#62),#431);
#44=STYLED_ITEM('',(#63),#432);
#45=STYLED_ITEM('',(#64),#433);
#46=STYLED_ITEM('',(#65),#434);
#47=STYLED_ITEM('',(#66),#435);
#48=STYLED_ITEM('',(#67),#436);
#49=STYLED_ITEM('',(#68),#437);
#50=STYLED_ITEM('',(#69),#438);
#51=STYLED_ITEM('',(#70),#443);
#52=STYLED_ITEM('',(#71),#444);
#53=STYLED_ITEM('',(#72),#445);
#54=STYLED_ITEM('',(#73),#446);
#55=STYLED_ITEM('',(#74),#447);
#56=STYLED_ITEM('',(#75),#448);
#57=STYLED_ITEM('',(#76),#449);
#58=PRESENTATION_STYLE_ASSIGNMENT((#77));
#59=PRESENTATION_STYLE_ASSIGNMENT((#78));
#60=PRESENTATION_STYLE_ASSIGNMENT((#79));
#61=PRESENTATION_STYLE_ASSIGNMENT((#80));
#62=PRESENTATION_STYLE_ASSIGNMENT((#81));
#63=PRESENTATION_STYLE_ASSIGNMENT((#82));
#64=PRESENTATION_STYLE_ASSIGNMENT((#83));
#65=PRESENTATION_STYLE_ASSIGNMENT((#84));
#66=PRESENTATION_STYLE_ASSIGNMENT((#85));
#67=PRESENTATION_STYLE_ASSIGNMENT((#86));
#68=PRESENTATION_STYLE_ASSIGNMENT((#87));
#69=PRESENTATION_STYLE_ASSIGNMENT((#88));
#70=PRESENTATION_STYLE_ASSIGNMENT((#89));
#71=PRESENTATION_STYLE_ASSIGNMENT((#90));
#72=PRESENTATION_STYLE_ASSIGNMENT((#91));
#73=PRESENTATION_STYLE_ASSIGNMENT((#92));
#74=PRESENTATION_STYLE_ASSIGNMENT((#93));
#75=PRESENTATION_STYLE_ASSIGNMENT((#94));
#76=PRESENTATION_STYLE_ASSIGNMENT((#95));
#77=SURFACE_STYLE_USAGE(.BOTH.,#96);
#78=SURFACE_STYLE_USAGE(.BOTH.,#97);
#79=SURFACE_STYLE_USAGE(.BOTH.,#98);
#80=SURFACE_STYLE_USAGE(.BOTH.,#99);
#81=SURFACE_STYLE_USAGE(.BOTH.,#100);
#82=SURFACE_STYLE_USAGE(.BOTH.,#101);
#83=SURFACE_STYLE_USAGE(.BOTH.,#102);
#84=SURFACE_STYLE_USAGE(.BOTH.,#103);
#85=SURFACE_STYLE_USAGE(.BOTH.,#104);
#86=SURFACE_STYLE_USAGE(.BOTH.,#105);
#87=SURFACE_STYLE_USAGE(.BOTH.,#106);
#88=SURFACE_STYLE_USAGE(.BOTH.,#107);
#89=SURFACE_STYLE_USAGE(.BOTH.,#108);
#90=SURFACE_STYLE_USAGE(.BOTH.,#109);
#91=SURFACE_STYLE_USAGE(.BOTH.,#110);
#92=SURFACE_STYLE_USAGE(.BOTH.,#111);
#93=SURFACE_STYLE_USAGE(.BOTH.,#112);
#94=SURFACE_STYLE_USAGE(.BOTH.,#113);
#95=SURFACE_STYLE_USAGE(.BOTH.,#114);
#96=SURFACE_SIDE_STYLE('',(#115));
#97=SURFACE_SIDE_STYLE('',(#116));
#98=SURFACE_SIDE_STYLE('',(#117));
#99=SURFACE_SIDE_STYLE('',(#118));
#100=SURFACE_SIDE_STYLE('',(#119));
#101=SURFACE_SIDE_STYLE('',(#120));
#102=SURFACE_SIDE_STYLE('',(#121));
#103=SURFACE_SIDE_STYLE('',(#122));
#104=SURFACE_SIDE_STYLE('',(#123));
#105=SURFACE_SIDE_STYLE('',(#124));
#106=SURFACE_SIDE_STYLE('',(#125));
#107=SURFACE_SIDE_STYLE('',(#126));
#108=SURFACE_SIDE_STYLE('',(#127));
#109=SURFACE_SIDE_STYLE('',(#128));
#110=SURFACE_SIDE_STYLE('',(#129));
#111=SURFACE_SIDE_STYLE('',(#130));
#112=SURFACE_SIDE_STYLE('',(#131));
#113=SURFACE_SIDE_STYLE('',(#132));
#114=SURFACE_SIDE_STYLE('',(#133));
#115=SURFACE_STYLE_FILL_AREA(#134);
#116=SURFACE_STYLE_FILL_AREA(#135);
#117=SURFACE_STYLE_FILL_AREA(#136);
#118=SURFACE_STYLE_FILL_AREA(#137);
#119=SURFACE_STYLE_FILL_AREA(#138);
#120=SURFACE_STYLE_FILL_AREA(#139);
#121=SURFACE_STYLE_FILL_AREA(#140);
#122=SURFACE_STYLE_FILL_AREA(#141);
#123=SURFACE_STYLE_FILL_AREA(#142);
#124=SURFACE_STYLE_FILL_AREA(#143);
#125=SURFACE_STYLE_FILL_AREA(#144);
#126=SURFACE_STYLE_FILL_AREA(#145);
#127=SURFACE_STYLE_FILL_AREA(#146);
#128=SURFACE_STYLE_FILL_AREA(#147);
#129=SURFACE_STYLE_FILL_AREA(#148);
#130=SURFACE_STYLE_FILL_AREA(#149);
#131=SURFACE_STYLE_FILL_AREA(#150);
#132=SURFACE_STYLE_FILL_AREA(#151);
#133=SURFACE_STYLE_FILL_AREA(#152);
#134=FILL_AREA_STYLE('',(#153));
#135=FILL_AREA_STYLE('',(#154));
#136=FILL_AREA_STYLE('',(#155));
#137=FILL_AREA_STYLE('',(#156));
#138=FILL_AREA_STYLE('',(#157));
#139=FILL_AREA_STYLE('',(#158));
#140=FILL_AREA_STYLE('',(#159));
#141=FILL_AREA_STYLE('',(#160));
#142=FILL_AREA_STYLE('',(#161));
#143=FILL_AREA_STYLE('',(#162));
#144=FILL_AREA_STYLE('',(#163));
#145=FILL_AREA_STYLE('',(#164));
#146=FILL_AREA_STYLE('',(#165));
#147=FILL_AREA_STYLE('',(#166));
#148=FILL_AREA_STYLE('',(#167));
#149=FILL_AREA_STYLE('',(#168));
#150=FILL_AREA_STYLE('',(#169));
#151=FILL_AREA_STYLE('',(#170));
#152=FILL_AREA_STYLE('',(#171));
#153=FILL_AREA_STYLE_COLOUR('',#172);
#154=FILL_AREA_STYLE_COLOUR('',#172);
#155=FILL_AREA_STYLE_COLOUR('',#172);
#156=FILL_AREA_STYLE_COLOUR('',#172);
#157=FILL_AREA_STYLE_COLOUR('',#172);
#158=FILL_AREA_STYLE_COLOUR('',#172);
#159=FILL_AREA_STYLE_COLOUR('',#172);
#160=FILL_AREA_STYLE_COLOUR('',#172);
#161=FILL_AREA_STYLE_COLOUR('',#172);
#162=FILL_AREA_STYLE_COLOUR('',#172);
#163=FILL_AREA_STYLE_COLOUR('',#172);
#164=FILL_AREA_STYLE_COLOUR('',#173);
#165=FILL_AREA_STYLE_COLOUR('',#172);
#166=FILL_AREA_STYLE_COLOUR('',#172);
#167=FILL_AREA_STYLE_COLOUR('',#172);
#168=FILL_AREA_STYLE_COLOUR('',#172);
#169=FILL_AREA_STYLE_COLOUR('',#172);
#170=FILL_AREA_STYLE_COLOUR('',#172);
#171=FILL_AREA_STYLE_COLOUR('',#172);
#172=COLOUR_RGB( ' ', 0.5, 0.5, 0.5 );
#173=COLOUR_RGB( ' ', 0.5, 0.5, 0.5 );
#174=ORIENTED_EDGE('',*,*,#228,.T.);
#175=ORIENTED_EDGE('',*,*,#229,.T.);
#176=ORIENTED_EDGE('',*,*,#230,.F.);
#177=ORIENTED_EDGE('',*,*,#231,.T.);
#178=ORIENTED_EDGE('',*,*,#232,.F.);
#179=ORIENTED_EDGE('',*,*,#233,.T.);
#180=ORIENTED_EDGE('',*,*,#234,.T.);
#181=ORIENTED_EDGE('',*,*,#235,.F.);
#182=ORIENTED_EDGE('',*,*,#230,.T.);
#183=ORIENTED_EDGE('',*,*,#232,.T.);
#184=ORIENTED_EDGE('',*,*,#236,.T.);
#185=ORIENTED_EDGE('',*,*,#237,.T.);
#186=ORIENTED_EDGE('',*,*,#238,.T.);
#187=ORIENTED_EDGE('',*,*,#237,.F.);
#188=ORIENTED_EDGE('',*,*,#239,.T.);
#189=ORIENTED_EDGE('',*,*,#238,.F.);
#190=ORIENTED_EDGE('',*,*,#240,.F.);
#191=ORIENTED_EDGE('',*,*,#239,.F.);
#192=ORIENTED_EDGE('',*,*,#236,.F.);
#193=ORIENTED_EDGE('',*,*,#233,.F.);
#194=ORIENTED_EDGE('',*,*,#241,.F.);
#195=ORIENTED_EDGE('',*,*,#235,.T.);
#196=ORIENTED_EDGE('',*,*,#242,.F.);
#197=ORIENTED_EDGE('',*,*,#241,.T.);
#198=ORIENTED_EDGE('',*,*,#243,.T.);
#199=ORIENTED_EDGE('',*,*,#242,.T.);
#200=ORIENTED_EDGE('',*,*,#244,.T.);
#201=ORIENTED_EDGE('',*,*,#243,.F.);
#202=ORIENTED_EDGE('',*,*,#245,.T.);
#203=ORIENTED_EDGE('',*,*,#244,.F.);
#204=ORIENTED_EDGE('',*,*,#240,.T.);
#205=ORIENTED_EDGE('',*,*,#245,.F.);
#206=ORIENTED_EDGE('',*,*,#246,.T.);
#207=ORIENTED_EDGE('',*,*,#229,.F.);
#208=ORIENTED_EDGE('',*,*,#247,.F.);
#209=ORIENTED_EDGE('',*,*,#246,.F.);
#210=ORIENTED_EDGE('',*,*,#248,.F.);
#211=ORIENTED_EDGE('',*,*,#249,.F.);
#212=ORIENTED_EDGE('',*,*,#248,.T.);
#213=ORIENTED_EDGE('',*,*,#250,.T.);
#214=ORIENTED_EDGE('',*,*,#250,.F.);
#215=ORIENTED_EDGE('',*,*,#251,.T.);
#216=ORIENTED_EDGE('',*,*,#249,.T.);
#217=ORIENTED_EDGE('',*,*,#252,.T.);
#218=ORIENTED_EDGE('',*,*,#252,.F.);
#219=ORIENTED_EDGE('',*,*,#253,.F.);
#220=ORIENTED_EDGE('',*,*,#253,.T.);
#221=ORIENTED_EDGE('',*,*,#254,.F.);
#222=ORIENTED_EDGE('',*,*,#254,.T.);
#223=ORIENTED_EDGE('',*,*,#247,.T.);
#224=ORIENTED_EDGE('',*,*,#231,.F.);
#225=ORIENTED_EDGE('',*,*,#251,.F.);
#226=ORIENTED_EDGE('',*,*,#228,.F.);
#227=ORIENTED_EDGE('',*,*,#234,.F.);
#228=EDGE_CURVE('',#255,#255,#282,.T.);
#229=EDGE_CURVE('',#256,#256,#283,.T.);
#230=EDGE_CURVE('',#257,#257,#284,.T.);
#231=EDGE_CURVE('',#258,#258,#285,.F.);
#232=EDGE_CURVE('',#259,#259,#286,.T.);
#233=EDGE_CURVE('',#260,#260,#287,.T.);
#234=EDGE_CURVE('',#261,#261,#288,.F.);
#235=EDGE_CURVE('',#262,#262,#289,.T.);
#236=EDGE_CURVE('',#263,#263,#290,.F.);
#237=EDGE_CURVE('',#264,#264,#291,.T.);
#238=EDGE_CURVE('',#265,#265,#292,.T.);
#239=EDGE_CURVE('',#266,#266,#293,.T.);
#240=EDGE_CURVE('',#267,#267,#294,.T.);
#241=EDGE_CURVE('',#268,#268,#295,.T.);
#242=EDGE_CURVE('',#269,#269,#296,.T.);
#243=EDGE_CURVE('',#270,#270,#297,.F.);
#244=EDGE_CURVE('',#271,#271,#298,.F.);
#245=EDGE_CURVE('',#272,#272,#299,.T.);
#246=EDGE_CURVE('',#273,#273,#300,.T.);
#247=EDGE_CURVE('',#274,#274,#301,.F.);
#248=EDGE_CURVE('',#275,#275,#302,.F.);
#249=EDGE_CURVE('',#276,#276,#303,.T.);
#250=EDGE_CURVE('',#277,#277,#304,.T.);
#251=EDGE_CURVE('',#278,#278,#305,.F.);
#252=EDGE_CURVE('',#279,#279,#306,.T.);
#253=EDGE_CURVE('',#280,#280,#307,.F.);
#254=EDGE_CURVE('',#281,#281,#308,.T.);
#255=VERTEX_POINT('',#624);
#256=VERTEX_POINT('',#626);
#257=VERTEX_POINT('',#629);
#258=VERTEX_POINT('',#631);
#259=VERTEX_POINT('',#634);
#260=VERTEX_POINT('',#636);
#261=VERTEX_POINT('',#639);
#262=VERTEX_POINT('',#641);
#263=VERTEX_POINT('',#645);
#264=VERTEX_POINT('',#647);
#265=VERTEX_POINT('',#650);
#266=VERTEX_POINT('',#653);
#267=VERTEX_POINT('',#656);
#268=VERTEX_POINT('',#660);
#269=VERTEX_POINT('',#663);
#270=VERTEX_POINT('',#666);
#271=VERTEX_POINT('',#669);
#272=VERTEX_POINT('',#672);
#273=VERTEX_POINT('',#676);
#274=VERTEX_POINT('',#679);
#275=VERTEX_POINT('',#682);
#276=VERTEX_POINT('',#684);
#277=VERTEX_POINT('',#687);
#278=VERTEX_POINT('',#690);
#279=VERTEX_POINT('',#693);
#280=VERTEX_POINT('',#696);
#281=VERTEX_POINT('',#699);
#282=CIRCLE('',#458,5.);
#283=CIRCLE('',#459,5.);
#284=CIRCLE('',#461,4.75);
#285=CIRCLE('',#462,4.96);
#286=CIRCLE('',#464,3.85);
#287=CIRCLE('',#465,3.5209996720134);
#288=CIRCLE('',#467,4.5);
#289=CIRCLE('',#468,3.55);
#290=CIRCLE('',#471,3.12104967888012);
#291=CIRCLE('',#472,3.00999057038511);
#292=CIRCLE('',#474,3.15);
#293=CIRCLE('',#476,3.15);
#294=CIRCLE('',#478,2.15);
#295=CIRCLE('',#481,2.75);
#296=CIRCLE('',#483,2.75);
#297=CIRCLE('',#485,2.067);
#298=CIRCLE('',#487,2.067);
#299=CIRCLE('',#489,2.15);
#300=CIRCLE('',#492,4.96);
#301=CIRCLE('',#494,4.96);
#302=CIRCLE('',#496,4.10000000000001);
#303=CIRCLE('',#497,4.00000000000001);
#304=CIRCLE('',#499,4.8);
#305=CIRCLE('',#501,4.96);
#306=CIRCLE('',#503,4.00000000000001);
#307=CIRCLE('',#505,4.10000000000001);
#308=CIRCLE('',#507,4.85);
#309=EDGE_LOOP('',(#174));
#310=EDGE_LOOP('',(#175));
#311=EDGE_LOOP('',(#176));
#312=EDGE_LOOP('',(#177));
#313=EDGE_LOOP('',(#178));
#314=EDGE_LOOP('',(#179));
#315=EDGE_LOOP('',(#180));
#316=EDGE_LOOP('',(#181));
#317=EDGE_LOOP('',(#182));
#318=EDGE_LOOP('',(#183));
#319=EDGE_LOOP('',(#184));
#320=EDGE_LOOP('',(#185));
#321=EDGE_LOOP('',(#186));
#322=EDGE_LOOP('',(#187));
#323=EDGE_LOOP('',(#188));
#324=EDGE_LOOP('',(#189));
#325=EDGE_LOOP('',(#190));
#326=EDGE_LOOP('',(#191));
#327=EDGE_LOOP('',(#192));
#328=EDGE_LOOP('',(#193));
#329=EDGE_LOOP('',(#194));
#330=EDGE_LOOP('',(#195));
#331=EDGE_LOOP('',(#196));
#332=EDGE_LOOP('',(#197));
#333=EDGE_LOOP('',(#198));
#334=EDGE_LOOP('',(#199));
#335=EDGE_LOOP('',(#200));
#336=EDGE_LOOP('',(#201));
#337=EDGE_LOOP('',(#202));
#338=EDGE_LOOP('',(#203));
#339=EDGE_LOOP('',(#204));
#340=EDGE_LOOP('',(#205));
#341=EDGE_LOOP('',(#206));
#342=EDGE_LOOP('',(#207));
#343=EDGE_LOOP('',(#208));
#344=EDGE_LOOP('',(#209));
#345=EDGE_LOOP('',(#210));
#346=EDGE_LOOP('',(#211));
#347=EDGE_LOOP('',(#212));
#348=EDGE_LOOP('',(#213));
#349=EDGE_LOOP('',(#214));
#350=EDGE_LOOP('',(#215));
#351=EDGE_LOOP('',(#216));
#352=EDGE_LOOP('',(#217));
#353=EDGE_LOOP('',(#218));
#354=EDGE_LOOP('',(#219));
#355=EDGE_LOOP('',(#220));
#356=EDGE_LOOP('',(#221));
#357=EDGE_LOOP('',(#222));
#358=EDGE_LOOP('',(#223));
#359=EDGE_LOOP('',(#224));
#360=EDGE_LOOP('',(#225));
#361=EDGE_LOOP('',(#226));
#362=EDGE_LOOP('',(#227));
#363=FACE_BOUND('',#309,.T.);
#364=FACE_BOUND('',#310,.T.);
#365=FACE_BOUND('',#311,.T.);
#366=FACE_BOUND('',#312,.T.);
#367=FACE_BOUND('',#313,.T.);
#368=FACE_BOUND('',#314,.T.);
#369=FACE_BOUND('',#315,.T.);
#370=FACE_BOUND('',#316,.T.);
#371=FACE_BOUND('',#317,.T.);
#372=FACE_BOUND('',#318,.T.);
#373=FACE_BOUND('',#319,.T.);
#374=FACE_BOUND('',#320,.T.);
#375=FACE_BOUND('',#321,.T.);
#376=FACE_BOUND('',#322,.T.);
#377=FACE_BOUND('',#323,.T.);
#378=FACE_BOUND('',#324,.T.);
#379=FACE_BOUND('',#325,.T.);
#380=FACE_BOUND('',#326,.T.);
#381=FACE_BOUND('',#327,.T.);
#382=FACE_BOUND('',#328,.T.);
#383=FACE_BOUND('',#329,.T.);
#384=FACE_BOUND('',#330,.T.);
#385=FACE_BOUND('',#331,.T.);
#386=FACE_BOUND('',#332,.T.);
#387=FACE_BOUND('',#333,.T.);
#388=FACE_BOUND('',#334,.T.);
#389=FACE_BOUND('',#335,.T.);
#390=FACE_BOUND('',#336,.T.);
#391=FACE_BOUND('',#337,.T.);
#392=FACE_BOUND('',#338,.T.);
#393=FACE_BOUND('',#339,.T.);
#394=FACE_BOUND('',#340,.T.);
#395=FACE_BOUND('',#341,.T.);
#396=FACE_BOUND('',#342,.T.);
#397=FACE_BOUND('',#343,.T.);
#398=FACE_BOUND('',#344,.T.);
#399=FACE_BOUND('',#345,.T.);
#400=FACE_BOUND('',#346,.T.);
#401=FACE_BOUND('',#347,.T.);
#402=FACE_BOUND('',#348,.T.);
#403=FACE_BOUND('',#349,.T.);
#404=FACE_BOUND('',#350,.T.);
#405=FACE_BOUND('',#351,.T.);
#406=FACE_BOUND('',#352,.T.);
#407=FACE_BOUND('',#353,.T.);
#408=FACE_BOUND('',#354,.T.);
#409=FACE_BOUND('',#355,.T.);
#410=FACE_BOUND('',#356,.T.);
#411=FACE_BOUND('',#357,.T.);
#412=FACE_BOUND('',#358,.T.);
#413=FACE_BOUND('',#359,.T.);
#414=FACE_BOUND('',#360,.T.);
#415=FACE_BOUND('',#361,.T.);
#416=FACE_BOUND('',#362,.T.);
#417=CYLINDRICAL_SURFACE('',#457,5.);
#418=CYLINDRICAL_SURFACE('',#475,3.15);
#419=CYLINDRICAL_SURFACE('',#482,2.75);
#420=CYLINDRICAL_SURFACE('',#486,2.067);
#421=CYLINDRICAL_SURFACE('',#490,2.15);
#422=CYLINDRICAL_SURFACE('',#493,4.96);
#423=CYLINDRICAL_SURFACE('',#502,4.00000000000001);
#424=CYLINDRICAL_SURFACE('',#509,4.96);
#425=ADVANCED_FACE('',(#363,#364),#417,.T.);
#426=ADVANCED_FACE('',(#365,#366),#34,.T.);
#427=ADVANCED_FACE('',(#367,#368),#28,.T.);
#428=ADVANCED_FACE('',(#369,#370),#29,.F.);
#429=ADVANCED_FACE('',(#371,#372),#20,.T.);
#430=ADVANCED_FACE('',(#373,#374),#21,.F.);
#431=ADVANCED_FACE('',(#375,#376),#30,.T.);
#432=ADVANCED_FACE('',(#377,#378),#418,.F.);
#433=ADVANCED_FACE('',(#379,#380),#22,.F.);
#434=ADVANCED_FACE('',(#381,#382),#35,.T.);
#435=ADVANCED_FACE('',(#383,#384),#36,.T.);
#436=ADVANCED_FACE('',(#385,#386),#419,.F.);
#437=ADVANCED_FACE('',(#387,#388),#23,.F.);
#438=ADVANCED_FACE('',(#389,#390),#420,.F.);
#439=ADVANCED_FACE('',(#391,#392),#31,.F.);
#440=ADVANCED_FACE('',(#393,#394),#421,.F.);
#441=ADVANCED_FACE('',(#395,#396),#24,.T.);
#442=ADVANCED_FACE('',(#397,#398),#422,.T.);
#443=ADVANCED_FACE('',(#399,#400),#37,.F.);
#444=ADVANCED_FACE('',(#401,#402),#32,.T.);
#445=ADVANCED_FACE('',(#403,#404),#25,.T.);
#446=ADVANCED_FACE('',(#405,#406),#423,.T.);
#447=ADVANCED_FACE('',(#407,#408),#38,.F.);
#448=ADVANCED_FACE('',(#409,#410),#33,.T.);
#449=ADVANCED_FACE('',(#411,#412),#26,.T.);
#450=ADVANCED_FACE('',(#413,#414),#424,.T.);
#451=ADVANCED_FACE('',(#415,#416),#27,.T.);
#452=CLOSED_SHELL('',(#425,#426,#427,#428,#429,#430,#431,#432,#433,#434,
#435,#436,#437,#438,#439,#440,#441,#442,#443,#444,#445,#446,#447,#448,#449,
#450,#451));
#453=MANIFOLD_SOLID_BREP('NOCUT',#452);
#454=SHAPE_DEFINITION_REPRESENTATION(#709,#455);
#455=SHAPE_REPRESENTATION('261070620',(#456),#704);
#456=AXIS2_PLACEMENT_3D('',#621,#511,#512);
#457=AXIS2_PLACEMENT_3D('',#622,#513,#514);
#458=AXIS2_PLACEMENT_3D('',#623,#515,#516);
#459=AXIS2_PLACEMENT_3D('',#625,#517,#518);
#460=AXIS2_PLACEMENT_3D('',#627,#519,#520);
#461=AXIS2_PLACEMENT_3D('',#628,#521,#522);
#462=AXIS2_PLACEMENT_3D('',#630,#523,#524);
#463=AXIS2_PLACEMENT_3D('',#632,#525,#526);
#464=AXIS2_PLACEMENT_3D('',#633,#527,#528);
#465=AXIS2_PLACEMENT_3D('',#635,#529,#530);
#466=AXIS2_PLACEMENT_3D('',#637,#531,#532);
#467=AXIS2_PLACEMENT_3D('',#638,#533,#534);
#468=AXIS2_PLACEMENT_3D('',#640,#535,#536);
#469=AXIS2_PLACEMENT_3D('',#642,#537,#538);
#470=AXIS2_PLACEMENT_3D('',#643,#539,#540);
#471=AXIS2_PLACEMENT_3D('',#644,#541,#542);
#472=AXIS2_PLACEMENT_3D('',#646,#543,#544);
#473=AXIS2_PLACEMENT_3D('',#648,#545,#546);
#474=AXIS2_PLACEMENT_3D('',#649,#547,#548);
#475=AXIS2_PLACEMENT_3D('',#651,#549,#550);
#476=AXIS2_PLACEMENT_3D('',#652,#551,#552);
#477=AXIS2_PLACEMENT_3D('',#654,#553,#554);
#478=AXIS2_PLACEMENT_3D('',#655,#555,#556);
#479=AXIS2_PLACEMENT_3D('',#657,#557,#558);
#480=AXIS2_PLACEMENT_3D('',#658,#559,#560);
#481=AXIS2_PLACEMENT_3D('',#659,#561,#562);
#482=AXIS2_PLACEMENT_3D('',#661,#563,#564);
#483=AXIS2_PLACEMENT_3D('',#662,#565,#566);
#484=AXIS2_PLACEMENT_3D('',#664,#567,#568);
#485=AXIS2_PLACEMENT_3D('',#665,#569,#570);
#486=AXIS2_PLACEMENT_3D('',#667,#571,#572);
#487=AXIS2_PLACEMENT_3D('',#668,#573,#574);
#488=AXIS2_PLACEMENT_3D('',#670,#575,#576);
#489=AXIS2_PLACEMENT_3D('',#671,#577,#578);
#490=AXIS2_PLACEMENT_3D('',#673,#579,#580);
#491=AXIS2_PLACEMENT_3D('',#674,#581,#582);
#492=AXIS2_PLACEMENT_3D('',#675,#583,#584);
#493=AXIS2_PLACEMENT_3D('',#677,#585,#586);
#494=AXIS2_PLACEMENT_3D('',#678,#587,#588);
#495=AXIS2_PLACEMENT_3D('',#680,#589,#590);
#496=AXIS2_PLACEMENT_3D('',#681,#591,#592);
#497=AXIS2_PLACEMENT_3D('',#683,#593,#594);
#498=AXIS2_PLACEMENT_3D('',#685,#595,#596);
#499=AXIS2_PLACEMENT_3D('',#686,#597,#598);
#500=AXIS2_PLACEMENT_3D('',#688,#599,#600);
#501=AXIS2_PLACEMENT_3D('',#689,#601,#602);
#502=AXIS2_PLACEMENT_3D('',#691,#603,#604);
#503=AXIS2_PLACEMENT_3D('',#692,#605,#606);
#504=AXIS2_PLACEMENT_3D('',#694,#607,#608);
#505=AXIS2_PLACEMENT_3D('',#695,#609,#610);
#506=AXIS2_PLACEMENT_3D('',#697,#611,#612);
#507=AXIS2_PLACEMENT_3D('',#698,#613,#614);
#508=AXIS2_PLACEMENT_3D('',#700,#615,#616);
#509=AXIS2_PLACEMENT_3D('',#701,#617,#618);
#510=AXIS2_PLACEMENT_3D('',#702,#619,#620);
#511=DIRECTION('',(0.,0.,1.));
#512=DIRECTION('',(1.,0.,0.));
#513=DIRECTION('',(0.,0.,1.));
#514=DIRECTION('',(1.,0.,0.));
#515=DIRECTION('',(0.,0.,-1.));
#516=DIRECTION('',(-1.,0.,0.));
#517=DIRECTION('',(0.,0.,1.));
#518=DIRECTION('',(1.,0.,0.));
#519=DIRECTION('',(1.15990833845754E-16,0.,-1.));
#520=DIRECTION('',(-1.,0.,-1.15990833845754E-16));
#521=DIRECTION('',(1.15990833845754E-16,0.,-1.));
#522=DIRECTION('',(-1.,0.,-1.15990833845754E-16));
#523=DIRECTION('',(-1.15990833845754E-16,0.,1.));
#524=DIRECTION('',(1.,0.,1.15990833845754E-16));
#525=DIRECTION('',(1.15990833845754E-16,0.,-1.));
#526=DIRECTION('',(-1.,0.,-1.15990833845754E-16));
#527=DIRECTION('',(-1.15990833845754E-16,0.,1.));
#528=DIRECTION('',(1.,0.,1.15990833845754E-16));
#529=DIRECTION('',(0.,0.,1.));
#530=DIRECTION('',(1.,0.,0.));
#531=DIRECTION('',(0.,0.,-1.));
#532=DIRECTION('',(-1.,0.,0.));
#533=DIRECTION('',(0.,0.,-1.));
#534=DIRECTION('',(-1.,0.,0.));
#535=DIRECTION('',(0.,0.,1.));
#536=DIRECTION('',(1.,0.,0.));
#537=DIRECTION('',(-1.15990833845754E-16,0.,1.));
#538=DIRECTION('',(1.,0.,1.15990833845754E-16));
#539=DIRECTION('',(0.,0.,-1.));
#540=DIRECTION('',(-1.,0.,0.));
#541=DIRECTION('',(0.,0.,1.));
#542=DIRECTION('',(1.,0.,0.));
#543=DIRECTION('',(0.,0.,1.));
#544=DIRECTION('',(1.,0.,0.));
#545=DIRECTION('',(0.,0.,1.));
#546=DIRECTION('',(1.,0.,0.));
#547=DIRECTION('',(0.,0.,1.));
#548=DIRECTION('',(1.,0.,0.));
#549=DIRECTION('',(0.,0.,1.));
#550=DIRECTION('',(1.,0.,0.));
#551=DIRECTION('',(0.,0.,1.));
#552=DIRECTION('',(1.,0.,0.));
#553=DIRECTION('',(0.,0.,-1.));
#554=DIRECTION('',(-1.,0.,0.));
#555=DIRECTION('',(0.,0.,-1.));
#556=DIRECTION('',(-1.,0.,0.));
#557=DIRECTION('',(0.,0.,1.));
#558=DIRECTION('',(1.,0.,0.));
#559=DIRECTION('',(0.,0.,1.));
#560=DIRECTION('',(1.,0.,0.));
#561=DIRECTION('',(0.,0.,1.));
#562=DIRECTION('',(1.,0.,0.));
#563=DIRECTION('',(0.,0.,1.));
#564=DIRECTION('',(1.,0.,0.));
#565=DIRECTION('',(0.,0.,1.));
#566=DIRECTION('',(1.,0.,0.));
#567=DIRECTION('',(0.,0.,1.));
#568=DIRECTION('',(1.,0.,0.));
#569=DIRECTION('',(0.,0.,1.));
#570=DIRECTION('',(1.,0.,0.));
#571=DIRECTION('',(0.,0.,-1.));
#572=DIRECTION('',(1.,0.,0.));
#573=DIRECTION('',(-1.15990833845754E-16,0.,1.));
#574=DIRECTION('',(1.,0.,1.15990833845754E-16));
#575=DIRECTION('',(-1.15990833845754E-16,0.,1.));
#576=DIRECTION('',(1.,0.,1.15990833845754E-16));
#577=DIRECTION('',(1.15990833845754E-16,0.,-1.));
#578=DIRECTION('',(-1.,0.,-1.15990833845754E-16));
#579=DIRECTION('',(-1.15990833845754E-16,0.,1.));
#580=DIRECTION('',(-1.,0.,-1.15990833845754E-16));
#581=DIRECTION('',(0.,0.,1.));
#582=DIRECTION('',(1.,0.,0.));
#583=DIRECTION('',(0.,0.,1.));
#584=DIRECTION('',(1.,0.,0.));
#585=DIRECTION('',(0.,0.,1.));
#586=DIRECTION('',(1.,0.,0.));
#587=DIRECTION('',(0.,0.,1.));
#588=DIRECTION('',(1.,0.,0.));
#589=DIRECTION('',(0.,0.,1.));
#590=DIRECTION('',(1.,0.,0.));
#591=DIRECTION('',(0.,0.,1.));
#592=DIRECTION('',(1.,0.,0.));
#593=DIRECTION('',(0.,0.,1.));
#594=DIRECTION('',(1.,0.,0.));
#595=DIRECTION('',(0.,0.,1.));
#596=DIRECTION('',(1.,0.,0.));
#597=DIRECTION('',(0.,0.,1.));
#598=DIRECTION('',(1.,0.,0.));
#599=DIRECTION('',(0.,0.,-1.));
#600=DIRECTION('',(-1.,0.,0.));
#601=DIRECTION('',(0.,0.,-1.));
#602=DIRECTION('',(-1.,0.,0.));
#603=DIRECTION('',(0.,0.,1.));
#604=DIRECTION('',(1.,0.,0.));
#605=DIRECTION('',(0.,0.,-1.));
#606=DIRECTION('',(-1.,0.,0.));
#607=DIRECTION('',(0.,0.,-1.));
#608=DIRECTION('',(-1.,0.,0.));
#609=DIRECTION('',(0.,0.,-1.));
#610=DIRECTION('',(-1.,0.,0.));
#611=DIRECTION('',(0.,0.,-1.));
#612=DIRECTION('',(-1.,0.,0.));
#613=DIRECTION('',(0.,0.,1.));
#614=DIRECTION('',(1.,0.,0.));
#615=DIRECTION('',(0.,0.,1.));
#616=DIRECTION('',(1.,0.,0.));
#617=DIRECTION('',(0.,0.,1.));
#618=DIRECTION('',(1.,0.,0.));
#619=DIRECTION('',(0.,0.,-1.));
#620=DIRECTION('',(-1.,0.,0.));
#621=CARTESIAN_POINT('',(0.,0.,0.));
#622=CARTESIAN_POINT('',(0.,0.,0.));
#623=CARTESIAN_POINT('',(0.,0.,-0.5));
#624=CARTESIAN_POINT('',(-5.,0.,-0.5));
#625=CARTESIAN_POINT('',(0.,0.,-130.5));
#626=CARTESIAN_POINT('',(5.,0.,-130.5));
#627=CARTESIAN_POINT('',(-1.10496109588219E-16,0.,-156.547372055837));
#628=CARTESIAN_POINT('',(-6.0270605229937E-17,0.,-156.980384757729));
#629=CARTESIAN_POINT('',(-4.75,0.,-156.980384757729));
#630=CARTESIAN_POINT('',(-8.77666409672567E-17,0.,-156.74333123526));
#631=CARTESIAN_POINT('',(4.96,0.,-156.74333123526));
#632=CARTESIAN_POINT('',(3.85,0.,-157.5));
#633=CARTESIAN_POINT('',(7.56039491760742E-31,0.,-157.5));
#634=CARTESIAN_POINT('',(3.85,0.,-157.5));
#635=CARTESIAN_POINT('',(0.,0.,-157.5));
#636=CARTESIAN_POINT('',(3.5209996720134,0.,-157.5));
#637=CARTESIAN_POINT('',(4.99999999999998,0.,0.));
#638=CARTESIAN_POINT('',(0.,0.,0.));
#639=CARTESIAN_POINT('',(-4.5,0.,0.));
#640=CARTESIAN_POINT('',(0.,0.,0.));
#641=CARTESIAN_POINT('',(3.55,0.,0.));
#642=CARTESIAN_POINT('',(-7.7012440016031E-17,0.,-156.836047190432));
#643=CARTESIAN_POINT('',(0.,0.,-157.5));
#644=CARTESIAN_POINT('',(0.,0.,-156.710000553334));
#645=CARTESIAN_POINT('',(3.12104967888012,0.,-156.710000553334));
#646=CARTESIAN_POINT('',(0.,0.,-134.5));
#647=CARTESIAN_POINT('',(3.00999057038511,0.,-134.5));
#648=CARTESIAN_POINT('',(3.00999057038511,0.,-134.5));
#649=CARTESIAN_POINT('',(0.,0.,-134.5));
#650=CARTESIAN_POINT('',(3.15,0.,-134.5));
#651=CARTESIAN_POINT('',(0.,0.,-113.113248654052));
#652=CARTESIAN_POINT('',(0.,0.,-129.5));
#653=CARTESIAN_POINT('',(3.15,0.,-129.5));
#654=CARTESIAN_POINT('',(0.,0.,-129.5));
#655=CARTESIAN_POINT('',(0.,0.,-128.92264973081));
#656=CARTESIAN_POINT('',(-2.15,0.,-128.92264973081));
#657=CARTESIAN_POINT('',(0.,0.,-156.7));
#658=CARTESIAN_POINT('',(0.,0.,-0.8));
#659=CARTESIAN_POINT('',(0.,0.,-0.800000000000002));
#660=CARTESIAN_POINT('',(2.75,0.,-0.800000000000002));
#661=CARTESIAN_POINT('',(0.,0.,60.));
#662=CARTESIAN_POINT('',(0.,0.,-3.));
#663=CARTESIAN_POINT('',(2.75,0.,-3.));
#664=CARTESIAN_POINT('',(0.,0.,-3.));
#665=CARTESIAN_POINT('',(0.,0.,-3.39433023385651));
#666=CARTESIAN_POINT('',(2.067,0.,-3.39433023385651));
#667=CARTESIAN_POINT('',(3.67273485929465E-15,0.,0.));
#668=CARTESIAN_POINT('',(3.67273485929465E-15,0.,-13.));
#669=CARTESIAN_POINT('',(2.067,0.,-13.));
#670=CARTESIAN_POINT('',(-1.61455912719096E-15,0.,-13.));
#671=CARTESIAN_POINT('',(-1.61455912719096E-15,0.,-13.));
#672=CARTESIAN_POINT('',(-2.15,0.,-13.));
#673=CARTESIAN_POINT('',(1.51461163635205E-14,0.,-157.5));
#674=CARTESIAN_POINT('',(0.,0.,-130.5));
#675=CARTESIAN_POINT('',(0.,0.,-130.54));
#676=CARTESIAN_POINT('',(4.96,0.,-130.54));
#677=CARTESIAN_POINT('',(0.,0.,60.));
#678=CARTESIAN_POINT('',(0.,0.,-152.94));
#679=CARTESIAN_POINT('',(4.96,0.,-152.94));
#680=CARTESIAN_POINT('',(0.,0.,-154.9));
#681=CARTESIAN_POINT('',(0.,0.,-155.));
#682=CARTESIAN_POINT('',(4.10000000000001,0.,-155.));
#683=CARTESIAN_POINT('',(0.,0.,-154.9));
#684=CARTESIAN_POINT('',(4.00000000000001,0.,-154.9));
#685=CARTESIAN_POINT('',(4.00000000000001,0.,-155.));
#686=CARTESIAN_POINT('',(0.,0.,-155.));
#687=CARTESIAN_POINT('',(4.8,0.,-155.));
#688=CARTESIAN_POINT('',(0.,0.,-155.));
#689=CARTESIAN_POINT('',(0.,0.,-155.16));
#690=CARTESIAN_POINT('',(-4.96,0.,-155.16));
#691=CARTESIAN_POINT('',(0.,0.,-100.));
#692=CARTESIAN_POINT('',(0.,0.,-153.15));
#693=CARTESIAN_POINT('',(-4.00000000000001,0.,-153.15));
#694=CARTESIAN_POINT('',(0.,0.,-153.15));
#695=CARTESIAN_POINT('',(0.,0.,-153.05));
#696=CARTESIAN_POINT('',(-4.10000000000001,0.,-153.05));
#697=CARTESIAN_POINT('',(4.85,0.,-153.05));
#698=CARTESIAN_POINT('',(0.,0.,-153.05));
#699=CARTESIAN_POINT('',(4.85,0.,-153.05));
#700=CARTESIAN_POINT('',(0.,0.,-152.9));
#701=CARTESIAN_POINT('',(0.,0.,60.));
#702=CARTESIAN_POINT('',(0.,0.,0.));
#703=MECHANICAL_DESIGN_GEOMETRIC_PRESENTATION_REPRESENTATION('',(#39,#40,
#41,#42,#43,#44,#45,#46,#47,#48,#49,#50,#51,#52,#53,#54,#55,#56,#57),#704);
#704=(
GEOMETRIC_REPRESENTATION_CONTEXT(3)
GLOBAL_UNCERTAINTY_ASSIGNED_CONTEXT((#705))
GLOBAL_UNIT_ASSIGNED_CONTEXT((#708,#707,#706))
REPRESENTATION_CONTEXT('261070620','TOP_LEVEL_ASSEMBLY_PART')
);
#705=UNCERTAINTY_MEASURE_WITH_UNIT(LENGTH_MEASURE(0.005),#708,
'DISTANCE_ACCURACY_VALUE','Maximum Tolerance applied to model');
#706=(
NAMED_UNIT(*)
SI_UNIT($,.STERADIAN.)
SOLID_ANGLE_UNIT()
);
#707=(
NAMED_UNIT(*)
PLANE_ANGLE_UNIT()
SI_UNIT($,.RADIAN.)
);
#708=(
LENGTH_UNIT()
NAMED_UNIT(*)
SI_UNIT(.MILLI.,.METRE.)
);
#709=PRODUCT_DEFINITION_SHAPE('','',#710);
#710=PRODUCT_DEFINITION('','',#712,#711);
#711=DESIGN_CONTEXT('',#718,'design');
#712=PRODUCT_DEFINITION_FORMATION_WITH_SPECIFIED_SOURCE('','',#714,
 .NOT_KNOWN.);
#713=PRODUCT_RELATED_PRODUCT_CATEGORY('','',(#714));
#714=PRODUCT('NOCUT','NOCUT','NOCUT',(#716));
#715=PRODUCT_CATEGORY('','');
#716=MECHANICAL_CONTEXT('',#718,'mechanical');
#717=APPLICATION_PROTOCOL_DEFINITION('international standard',
'config_control_design',2010,#718);
#718=APPLICATION_CONTEXT(
'configuration controlled 3D designs of mechanical parts and assemblie
s');
#719=AXIS2_PLACEMENT_3D('PCS',#720,#721,#722);
#720=CARTESIAN_POINT('',(0.,0.,-40.));
#721=DIRECTION('',(0.,0.,1.));
#722=DIRECTION('',(1.,0.,0.));
#723=AXIS2_PLACEMENT_3D('MCS',#724,#725,#726);
#724=CARTESIAN_POINT('',(0.,0.,-40.));
#725=DIRECTION('',(0.,0.,1.));
#726=DIRECTION('',(1.,0.,0.));
#727=AXIS2_PLACEMENT_3D('CSW',#728,#729,#730);
#728=CARTESIAN_POINT('',(0.,0.,-157.5));
#729=DIRECTION('',(0.,0.,1.));
#730=DIRECTION('',(1.,0.,0.));
#731=CONSTRUCTIVE_GEOMETRY_REPRESENTATION_RELATIONSHIP('coordinate systems',$,#19,#732);
#732=CONSTRUCTIVE_GEOMETRY_REPRESENTATION('coordinate systems',(#719, #723, #727),#704);
ENDSEC;
END-ISO-10303-21;

