ISO-10303-21;
HEADER;
FILE_DESCRIPTION(
/* description */ (''),
/* implementation_level */ '2;1');
FILE_NAME(
/* name */ '262011660.stp',
/* time_stamp */ '2021-01-19T15:24:19',
/* author */ ('LRA'),
/* organization */ ('REGO-FIX'),
/* preprocessor_version */ ' Unknown',
/* originating_system */ 'SIEMENS PLM Software Solid Edge ST10',
/* authorization */ 'Unknown');
FILE_SCHEMA (('AUTOMOTIVE_DESIGN { 1 0 10303 214 2 1 1}'));
ENDSEC;
DATA;
#10=PROPERTY_DEFINITION_REPRESENTATION(#14,#12);
#11=PROPERTY_DEFINITION_REPRESENTATION(#15,#13);
#12=REPRESENTATION('',(#16),#672);
#13=REPRESENTATION('',(#17),#672);
#14=PROPERTY_DEFINITION('pmi validation property','',#677);
#15=PROPERTY_DEFINITION('pmi validation property','',#677);
#16=VALUE_REPRESENTATION_ITEM('number of annotations',COUNT_MEASURE(0.));
#17=VALUE_REPRESENTATION_ITEM('number of views',COUNT_MEASURE(0.));
#18=SHAPE_REPRESENTATION_RELATIONSHIP('','',#439,#19);
#19=ADVANCED_BREP_SHAPE_REPRESENTATION('',(#437),#672);
#20=VERTEX_LOOP('',#188);
#21=TOROIDAL_SURFACE('',#469,11.2,0.4);
#22=TOROIDAL_SURFACE('',#475,8.70948347372301,0.8);
#23=B_SPLINE_CURVE_WITH_KNOTS('',3,(#596,#597,#598,#599),.UNSPECIFIED.,
 .F.,.F.,(4,4),(0.0346863713643692,0.0364941541654067),.UNSPECIFIED.);
#24=B_SPLINE_CURVE_WITH_KNOTS('',3,(#600,#601,#602,#603),.UNSPECIFIED.,
 .F.,.F.,(4,4),(0.0346863713643692,0.0364941541654067),.UNSPECIFIED.);
#25=B_SPLINE_CURVE_WITH_KNOTS('',3,(#605,#606,#607,#608),.UNSPECIFIED.,
 .F.,.F.,(4,4),(0.0304011732123308,0.0322174176301715),.UNSPECIFIED.);
#26=B_SPLINE_CURVE_WITH_KNOTS('',3,(#609,#610,#611,#612),.UNSPECIFIED.,
 .F.,.F.,(4,4),(0.0304011732123308,0.0322174176301715),.UNSPECIFIED.);
#27=B_SPLINE_CURVE_WITH_KNOTS('',3,(#623,#624,#625,#626),.UNSPECIFIED.,
 .F.,.F.,(4,4),(0.0346863713643692,0.0364941541654067),.UNSPECIFIED.);
#28=B_SPLINE_CURVE_WITH_KNOTS('',3,(#627,#628,#629,#630),.UNSPECIFIED.,
 .F.,.F.,(4,4),(0.0346863713643692,0.0364941541654067),.UNSPECIFIED.);
#29=B_SPLINE_CURVE_WITH_KNOTS('',3,(#632,#633,#634,#635),.UNSPECIFIED.,
 .F.,.F.,(4,4),(0.0304011732123308,0.0322174176301715),.UNSPECIFIED.);
#30=B_SPLINE_CURVE_WITH_KNOTS('',3,(#636,#637,#638,#639),.UNSPECIFIED.,
 .F.,.F.,(4,4),(0.0304011732123308,0.0322174176301715),.UNSPECIFIED.);
#31=CONICAL_SURFACE('',#451,30.,0.78539816339745);
#32=CONICAL_SURFACE('',#452,29.15,0.785398163397446);
#33=CONICAL_SURFACE('',#456,30.,0.78539816339745);
#34=CONICAL_SURFACE('',#457,29.15,0.785398163397446);
#35=CONICAL_SURFACE('',#466,11.,0.785398163397448);
#36=CONICAL_SURFACE('',#467,11.,0.261799387799147);
#37=CONICAL_SURFACE('',#473,5.25,0.139626340159547);
#38=CONICAL_SURFACE('',#476,5.25,1.02974425867665);
#39=CYLINDRICAL_SURFACE('',#445,30.);
#40=CYLINDRICAL_SURFACE('',#453,30.);
#41=CYLINDRICAL_SURFACE('',#458,11.);
#42=CYLINDRICAL_SURFACE('',#464,11.);
#43=CYLINDRICAL_SURFACE('',#470,5.25);
#44=LINE('',#569,#52);
#45=LINE('',#574,#53);
#46=LINE('',#578,#54);
#47=LINE('',#583,#55);
#48=LINE('',#590,#56);
#49=LINE('',#594,#57);
#50=LINE('',#617,#58);
#51=LINE('',#621,#59);
#52=VECTOR('',#485,1000.);
#53=VECTOR('',#488,1000.);
#54=VECTOR('',#493,1000.);
#55=VECTOR('',#496,1000.);
#56=VECTOR('',#503,1000.);
#57=VECTOR('',#506,1000.);
#58=VECTOR('',#515,1000.);
#59=VECTOR('',#518,1000.);
#60=ORIENTED_EDGE('',*,*,#128,.T.);
#61=ORIENTED_EDGE('',*,*,#129,.T.);
#62=ORIENTED_EDGE('',*,*,#130,.T.);
#63=ORIENTED_EDGE('',*,*,#131,.F.);
#64=ORIENTED_EDGE('',*,*,#132,.T.);
#65=ORIENTED_EDGE('',*,*,#133,.F.);
#66=ORIENTED_EDGE('',*,*,#134,.T.);
#67=ORIENTED_EDGE('',*,*,#135,.T.);
#68=ORIENTED_EDGE('',*,*,#136,.T.);
#69=ORIENTED_EDGE('',*,*,#137,.T.);
#70=ORIENTED_EDGE('',*,*,#138,.F.);
#71=ORIENTED_EDGE('',*,*,#139,.T.);
#72=ORIENTED_EDGE('',*,*,#140,.T.);
#73=ORIENTED_EDGE('',*,*,#130,.F.);
#74=ORIENTED_EDGE('',*,*,#141,.T.);
#75=ORIENTED_EDGE('',*,*,#136,.F.);
#76=ORIENTED_EDGE('',*,*,#142,.F.);
#77=ORIENTED_EDGE('',*,*,#134,.F.);
#78=ORIENTED_EDGE('',*,*,#143,.T.);
#79=ORIENTED_EDGE('',*,*,#137,.F.);
#80=ORIENTED_EDGE('',*,*,#144,.F.);
#81=ORIENTED_EDGE('',*,*,#145,.T.);
#82=ORIENTED_EDGE('',*,*,#146,.T.);
#83=ORIENTED_EDGE('',*,*,#147,.T.);
#84=ORIENTED_EDGE('',*,*,#148,.F.);
#85=ORIENTED_EDGE('',*,*,#149,.F.);
#86=ORIENTED_EDGE('',*,*,#132,.F.);
#87=ORIENTED_EDGE('',*,*,#150,.T.);
#88=ORIENTED_EDGE('',*,*,#147,.F.);
#89=ORIENTED_EDGE('',*,*,#151,.F.);
#90=ORIENTED_EDGE('',*,*,#145,.F.);
#91=ORIENTED_EDGE('',*,*,#152,.T.);
#92=ORIENTED_EDGE('',*,*,#139,.F.);
#93=ORIENTED_EDGE('',*,*,#153,.T.);
#94=ORIENTED_EDGE('',*,*,#154,.T.);
#95=ORIENTED_EDGE('',*,*,#155,.T.);
#96=ORIENTED_EDGE('',*,*,#156,.T.);
#97=ORIENTED_EDGE('',*,*,#157,.F.);
#98=ORIENTED_EDGE('',*,*,#154,.F.);
#99=ORIENTED_EDGE('',*,*,#156,.F.);
#100=ORIENTED_EDGE('',*,*,#153,.F.);
#101=ORIENTED_EDGE('',*,*,#158,.F.);
#102=ORIENTED_EDGE('',*,*,#157,.T.);
#103=ORIENTED_EDGE('',*,*,#128,.F.);
#104=ORIENTED_EDGE('',*,*,#158,.T.);
#105=ORIENTED_EDGE('',*,*,#159,.F.);
#106=ORIENTED_EDGE('',*,*,#160,.T.);
#107=ORIENTED_EDGE('',*,*,#161,.F.);
#108=ORIENTED_EDGE('',*,*,#159,.T.);
#109=ORIENTED_EDGE('',*,*,#155,.F.);
#110=ORIENTED_EDGE('',*,*,#161,.T.);
#111=ORIENTED_EDGE('',*,*,#160,.F.);
#112=ORIENTED_EDGE('',*,*,#131,.T.);
#113=ORIENTED_EDGE('',*,*,#142,.T.);
#114=ORIENTED_EDGE('',*,*,#135,.F.);
#115=ORIENTED_EDGE('',*,*,#144,.T.);
#116=ORIENTED_EDGE('',*,*,#140,.F.);
#117=ORIENTED_EDGE('',*,*,#152,.F.);
#118=ORIENTED_EDGE('',*,*,#148,.T.);
#119=ORIENTED_EDGE('',*,*,#150,.F.);
#120=ORIENTED_EDGE('',*,*,#149,.T.);
#121=ORIENTED_EDGE('',*,*,#146,.F.);
#122=ORIENTED_EDGE('',*,*,#151,.T.);
#123=ORIENTED_EDGE('',*,*,#138,.T.);
#124=ORIENTED_EDGE('',*,*,#143,.F.);
#125=ORIENTED_EDGE('',*,*,#133,.T.);
#126=ORIENTED_EDGE('',*,*,#141,.F.);
#127=ORIENTED_EDGE('',*,*,#129,.F.);
#128=EDGE_CURVE('',#162,#162,#189,.T.);
#129=EDGE_CURVE('',#163,#164,#44,.T.);
#130=EDGE_CURVE('',#164,#165,#190,.F.);
#131=EDGE_CURVE('',#166,#165,#45,.T.);
#132=EDGE_CURVE('',#166,#163,#191,.F.);
#133=EDGE_CURVE('',#167,#168,#46,.F.);
#134=EDGE_CURVE('',#167,#169,#192,.T.);
#135=EDGE_CURVE('',#169,#170,#47,.F.);
#136=EDGE_CURVE('',#170,#168,#193,.T.);
#137=EDGE_CURVE('',#171,#172,#194,.F.);
#138=EDGE_CURVE('',#173,#172,#48,.T.);
#139=EDGE_CURVE('',#173,#174,#195,.F.);
#140=EDGE_CURVE('',#174,#171,#49,.T.);
#141=EDGE_CURVE('',#164,#168,#23,.T.);
#142=EDGE_CURVE('',#165,#170,#24,.T.);
#143=EDGE_CURVE('',#167,#172,#25,.T.);
#144=EDGE_CURVE('',#169,#171,#26,.T.);
#145=EDGE_CURVE('',#175,#176,#196,.T.);
#146=EDGE_CURVE('',#176,#177,#50,.F.);
#147=EDGE_CURVE('',#177,#178,#197,.T.);
#148=EDGE_CURVE('',#175,#178,#51,.F.);
#149=EDGE_CURVE('',#163,#177,#27,.T.);
#150=EDGE_CURVE('',#166,#178,#28,.T.);
#151=EDGE_CURVE('',#176,#173,#29,.T.);
#152=EDGE_CURVE('',#175,#174,#30,.T.);
#153=EDGE_CURVE('',#179,#179,#198,.T.);
#154=EDGE_CURVE('',#180,#180,#199,.T.);
#155=EDGE_CURVE('',#181,#181,#200,.T.);
#156=EDGE_CURVE('',#182,#182,#201,.F.);
#157=EDGE_CURVE('',#183,#183,#202,.T.);
#158=EDGE_CURVE('',#184,#184,#203,.T.);
#159=EDGE_CURVE('',#185,#185,#204,.T.);
#160=EDGE_CURVE('',#186,#186,#205,.T.);
#161=EDGE_CURVE('',#187,#187,#206,.T.);
#162=VERTEX_POINT('',#568);
#163=VERTEX_POINT('',#570);
#164=VERTEX_POINT('',#571);
#165=VERTEX_POINT('',#573);
#166=VERTEX_POINT('',#575);
#167=VERTEX_POINT('',#579);
#168=VERTEX_POINT('',#580);
#169=VERTEX_POINT('',#582);
#170=VERTEX_POINT('',#584);
#171=VERTEX_POINT('',#588);
#172=VERTEX_POINT('',#589);
#173=VERTEX_POINT('',#591);
#174=VERTEX_POINT('',#593);
#175=VERTEX_POINT('',#615);
#176=VERTEX_POINT('',#616);
#177=VERTEX_POINT('',#618);
#178=VERTEX_POINT('',#620);
#179=VERTEX_POINT('',#642);
#180=VERTEX_POINT('',#644);
#181=VERTEX_POINT('',#647);
#182=VERTEX_POINT('',#649);
#183=VERTEX_POINT('',#652);
#184=VERTEX_POINT('',#656);
#185=VERTEX_POINT('',#660);
#186=VERTEX_POINT('',#662);
#187=VERTEX_POINT('',#665);
#188=VERTEX_POINT('',#668);
#189=CIRCLE('',#442,11.2);
#190=CIRCLE('',#443,29.15);
#191=CIRCLE('',#444,29.15);
#192=CIRCLE('',#446,30.);
#193=CIRCLE('',#447,30.);
#194=CIRCLE('',#449,29.15);
#195=CIRCLE('',#450,29.15);
#196=CIRCLE('',#454,30.);
#197=CIRCLE('',#455,30.);
#198=CIRCLE('',#459,11.);
#199=CIRCLE('',#460,11.);
#200=CIRCLE('',#462,8.32218513910227);
#201=CIRCLE('',#463,10.);
#202=CIRCLE('',#465,11.);
#203=CIRCLE('',#468,10.8136296694844);
#204=CIRCLE('',#471,5.25);
#205=CIRCLE('',#472,5.25);
#206=CIRCLE('',#474,7.91726901872998);
#207=EDGE_LOOP('',(#60));
#208=EDGE_LOOP('',(#61,#62,#63,#64));
#209=EDGE_LOOP('',(#65,#66,#67,#68));
#210=EDGE_LOOP('',(#69,#70,#71,#72));
#211=EDGE_LOOP('',(#73,#74,#75,#76));
#212=EDGE_LOOP('',(#77,#78,#79,#80));
#213=EDGE_LOOP('',(#81,#82,#83,#84));
#214=EDGE_LOOP('',(#85,#86,#87,#88));
#215=EDGE_LOOP('',(#89,#90,#91,#92));
#216=EDGE_LOOP('',(#93));
#217=EDGE_LOOP('',(#94));
#218=EDGE_LOOP('',(#95));
#219=EDGE_LOOP('',(#96));
#220=EDGE_LOOP('',(#97));
#221=EDGE_LOOP('',(#98));
#222=EDGE_LOOP('',(#99));
#223=EDGE_LOOP('',(#100));
#224=EDGE_LOOP('',(#101));
#225=EDGE_LOOP('',(#102));
#226=EDGE_LOOP('',(#103));
#227=EDGE_LOOP('',(#104));
#228=EDGE_LOOP('',(#105));
#229=EDGE_LOOP('',(#106));
#230=EDGE_LOOP('',(#107));
#231=EDGE_LOOP('',(#108));
#232=EDGE_LOOP('',(#109));
#233=EDGE_LOOP('',(#110));
#234=EDGE_LOOP('',(#111));
#235=EDGE_LOOP('',(#112,#113,#114,#115,#116,#117,#118,#119));
#236=EDGE_LOOP('',(#120,#121,#122,#123,#124,#125,#126,#127));
#237=FACE_BOUND('',#207,.T.);
#238=FACE_BOUND('',#208,.T.);
#239=FACE_BOUND('',#209,.T.);
#240=FACE_BOUND('',#210,.T.);
#241=FACE_BOUND('',#211,.T.);
#242=FACE_BOUND('',#212,.T.);
#243=FACE_BOUND('',#213,.T.);
#244=FACE_BOUND('',#214,.T.);
#245=FACE_BOUND('',#215,.T.);
#246=FACE_BOUND('',#216,.T.);
#247=FACE_BOUND('',#217,.T.);
#248=FACE_BOUND('',#218,.T.);
#249=FACE_BOUND('',#219,.T.);
#250=FACE_BOUND('',#220,.T.);
#251=FACE_BOUND('',#221,.T.);
#252=FACE_BOUND('',#222,.T.);
#253=FACE_BOUND('',#223,.T.);
#254=FACE_BOUND('',#224,.T.);
#255=FACE_BOUND('',#225,.T.);
#256=FACE_BOUND('',#226,.T.);
#257=FACE_BOUND('',#227,.T.);
#258=FACE_BOUND('',#228,.T.);
#259=FACE_BOUND('',#229,.T.);
#260=FACE_BOUND('',#230,.T.);
#261=FACE_BOUND('',#231,.T.);
#262=FACE_BOUND('',#232,.T.);
#263=FACE_BOUND('',#233,.T.);
#264=FACE_BOUND('',#234,.T.);
#265=FACE_BOUND('',#20,.T.);
#266=FACE_BOUND('',#235,.T.);
#267=FACE_BOUND('',#236,.T.);
#268=PLANE('',#441);
#269=PLANE('',#448);
#270=PLANE('',#461);
#271=PLANE('',#477);
#272=PLANE('',#478);
#273=STYLED_ITEM('',(#293),#416);
#274=STYLED_ITEM('',(#294),#417);
#275=STYLED_ITEM('',(#295),#418);
#276=STYLED_ITEM('',(#296),#419);
#277=STYLED_ITEM('',(#297),#420);
#278=STYLED_ITEM('',(#298),#421);
#279=STYLED_ITEM('',(#299),#422);
#280=STYLED_ITEM('',(#300),#423);
#281=STYLED_ITEM('',(#301),#424);
#282=STYLED_ITEM('',(#302),#425);
#283=STYLED_ITEM('',(#303),#426);
#284=STYLED_ITEM('',(#304),#427);
#285=STYLED_ITEM('',(#305),#428);
#286=STYLED_ITEM('',(#306),#429);
#287=STYLED_ITEM('',(#307),#430);
#288=STYLED_ITEM('',(#308),#431);
#289=STYLED_ITEM('',(#309),#432);
#290=STYLED_ITEM('',(#310),#433);
#291=STYLED_ITEM('',(#311),#434);
#292=STYLED_ITEM('',(#312),#435);
#293=PRESENTATION_STYLE_ASSIGNMENT((#313));
#294=PRESENTATION_STYLE_ASSIGNMENT((#314));
#295=PRESENTATION_STYLE_ASSIGNMENT((#315));
#296=PRESENTATION_STYLE_ASSIGNMENT((#316));
#297=PRESENTATION_STYLE_ASSIGNMENT((#317));
#298=PRESENTATION_STYLE_ASSIGNMENT((#318));
#299=PRESENTATION_STYLE_ASSIGNMENT((#319));
#300=PRESENTATION_STYLE_ASSIGNMENT((#320));
#301=PRESENTATION_STYLE_ASSIGNMENT((#321));
#302=PRESENTATION_STYLE_ASSIGNMENT((#322));
#303=PRESENTATION_STYLE_ASSIGNMENT((#323));
#304=PRESENTATION_STYLE_ASSIGNMENT((#324));
#305=PRESENTATION_STYLE_ASSIGNMENT((#325));
#306=PRESENTATION_STYLE_ASSIGNMENT((#326));
#307=PRESENTATION_STYLE_ASSIGNMENT((#327));
#308=PRESENTATION_STYLE_ASSIGNMENT((#328));
#309=PRESENTATION_STYLE_ASSIGNMENT((#329));
#310=PRESENTATION_STYLE_ASSIGNMENT((#330));
#311=PRESENTATION_STYLE_ASSIGNMENT((#331));
#312=PRESENTATION_STYLE_ASSIGNMENT((#332));
#313=SURFACE_STYLE_USAGE(.BOTH.,#333);
#314=SURFACE_STYLE_USAGE(.BOTH.,#334);
#315=SURFACE_STYLE_USAGE(.BOTH.,#335);
#316=SURFACE_STYLE_USAGE(.BOTH.,#336);
#317=SURFACE_STYLE_USAGE(.BOTH.,#337);
#318=SURFACE_STYLE_USAGE(.BOTH.,#338);
#319=SURFACE_STYLE_USAGE(.BOTH.,#339);
#320=SURFACE_STYLE_USAGE(.BOTH.,#340);
#321=SURFACE_STYLE_USAGE(.BOTH.,#341);
#322=SURFACE_STYLE_USAGE(.BOTH.,#342);
#323=SURFACE_STYLE_USAGE(.BOTH.,#343);
#324=SURFACE_STYLE_USAGE(.BOTH.,#344);
#325=SURFACE_STYLE_USAGE(.BOTH.,#345);
#326=SURFACE_STYLE_USAGE(.BOTH.,#346);
#327=SURFACE_STYLE_USAGE(.BOTH.,#347);
#328=SURFACE_STYLE_USAGE(.BOTH.,#348);
#329=SURFACE_STYLE_USAGE(.BOTH.,#349);
#330=SURFACE_STYLE_USAGE(.BOTH.,#350);
#331=SURFACE_STYLE_USAGE(.BOTH.,#351);
#332=SURFACE_STYLE_USAGE(.BOTH.,#352);
#333=SURFACE_SIDE_STYLE('',(#353));
#334=SURFACE_SIDE_STYLE('',(#354));
#335=SURFACE_SIDE_STYLE('',(#355));
#336=SURFACE_SIDE_STYLE('',(#356));
#337=SURFACE_SIDE_STYLE('',(#357));
#338=SURFACE_SIDE_STYLE('',(#358));
#339=SURFACE_SIDE_STYLE('',(#359));
#340=SURFACE_SIDE_STYLE('',(#360));
#341=SURFACE_SIDE_STYLE('',(#361));
#342=SURFACE_SIDE_STYLE('',(#362));
#343=SURFACE_SIDE_STYLE('',(#363));
#344=SURFACE_SIDE_STYLE('',(#364));
#345=SURFACE_SIDE_STYLE('',(#365));
#346=SURFACE_SIDE_STYLE('',(#366));
#347=SURFACE_SIDE_STYLE('',(#367));
#348=SURFACE_SIDE_STYLE('',(#368));
#349=SURFACE_SIDE_STYLE('',(#369));
#350=SURFACE_SIDE_STYLE('',(#370));
#351=SURFACE_SIDE_STYLE('',(#371));
#352=SURFACE_SIDE_STYLE('',(#372));
#353=SURFACE_STYLE_FILL_AREA(#373);
#354=SURFACE_STYLE_FILL_AREA(#374);
#355=SURFACE_STYLE_FILL_AREA(#375);
#356=SURFACE_STYLE_FILL_AREA(#376);
#357=SURFACE_STYLE_FILL_AREA(#377);
#358=SURFACE_STYLE_FILL_AREA(#378);
#359=SURFACE_STYLE_FILL_AREA(#379);
#360=SURFACE_STYLE_FILL_AREA(#380);
#361=SURFACE_STYLE_FILL_AREA(#381);
#362=SURFACE_STYLE_FILL_AREA(#382);
#363=SURFACE_STYLE_FILL_AREA(#383);
#364=SURFACE_STYLE_FILL_AREA(#384);
#365=SURFACE_STYLE_FILL_AREA(#385);
#366=SURFACE_STYLE_FILL_AREA(#386);
#367=SURFACE_STYLE_FILL_AREA(#387);
#368=SURFACE_STYLE_FILL_AREA(#388);
#369=SURFACE_STYLE_FILL_AREA(#389);
#370=SURFACE_STYLE_FILL_AREA(#390);
#371=SURFACE_STYLE_FILL_AREA(#391);
#372=SURFACE_STYLE_FILL_AREA(#392);
#373=FILL_AREA_STYLE('',(#393));
#374=FILL_AREA_STYLE('',(#394));
#375=FILL_AREA_STYLE('',(#395));
#376=FILL_AREA_STYLE('',(#396));
#377=FILL_AREA_STYLE('',(#397));
#378=FILL_AREA_STYLE('',(#398));
#379=FILL_AREA_STYLE('',(#399));
#380=FILL_AREA_STYLE('',(#400));
#381=FILL_AREA_STYLE('',(#401));
#382=FILL_AREA_STYLE('',(#402));
#383=FILL_AREA_STYLE('',(#403));
#384=FILL_AREA_STYLE('',(#404));
#385=FILL_AREA_STYLE('',(#405));
#386=FILL_AREA_STYLE('',(#406));
#387=FILL_AREA_STYLE('',(#407));
#388=FILL_AREA_STYLE('',(#408));
#389=FILL_AREA_STYLE('',(#409));
#390=FILL_AREA_STYLE('',(#410));
#391=FILL_AREA_STYLE('',(#411));
#392=FILL_AREA_STYLE('',(#412));
#393=FILL_AREA_STYLE_COLOUR('',#413);
#394=FILL_AREA_STYLE_COLOUR('',#413);
#395=FILL_AREA_STYLE_COLOUR('',#413);
#396=FILL_AREA_STYLE_COLOUR('',#413);
#397=FILL_AREA_STYLE_COLOUR('',#413);
#398=FILL_AREA_STYLE_COLOUR('',#413);
#399=FILL_AREA_STYLE_COLOUR('',#413);
#400=FILL_AREA_STYLE_COLOUR('',#413);
#401=FILL_AREA_STYLE_COLOUR('',#414);
#402=FILL_AREA_STYLE_COLOUR('',#415);
#403=FILL_AREA_STYLE_COLOUR('',#413);
#404=FILL_AREA_STYLE_COLOUR('',#415);
#405=FILL_AREA_STYLE_COLOUR('',#413);
#406=FILL_AREA_STYLE_COLOUR('',#413);
#407=FILL_AREA_STYLE_COLOUR('',#413);
#408=FILL_AREA_STYLE_COLOUR('',#415);
#409=FILL_AREA_STYLE_COLOUR('',#415);
#410=FILL_AREA_STYLE_COLOUR('',#413);
#411=FILL_AREA_STYLE_COLOUR('',#413);
#412=FILL_AREA_STYLE_COLOUR('',#413);
#413=COLOUR_RGB( ' ', 0.5, 0.5, 0.5 );
#414=COLOUR_RGB( ' ', 0.5, 0.5, 0.5 );
#415=COLOUR_RGB( ' ', 0.5, 0.5, 0.5 );
#416=ADVANCED_FACE('',(#237,#238),#268,.F.);
#417=ADVANCED_FACE('',(#239),#39,.T.);
#418=ADVANCED_FACE('',(#240),#269,.F.);
#419=ADVANCED_FACE('',(#241),#31,.T.);
#420=ADVANCED_FACE('',(#242),#32,.T.);
#421=ADVANCED_FACE('',(#243),#40,.T.);
#422=ADVANCED_FACE('',(#244),#33,.T.);
#423=ADVANCED_FACE('',(#245),#34,.T.);
#424=ADVANCED_FACE('',(#246,#247),#41,.T.);
#425=ADVANCED_FACE('',(#248,#249),#270,.F.);
#426=ADVANCED_FACE('',(#250,#251),#42,.T.);
#427=ADVANCED_FACE('',(#252,#253),#35,.T.);
#428=ADVANCED_FACE('',(#254,#255),#36,.T.);
#429=ADVANCED_FACE('',(#256,#257),#21,.F.);
#430=ADVANCED_FACE('',(#258,#259),#43,.F.);
#431=ADVANCED_FACE('',(#260,#261),#37,.F.);
#432=ADVANCED_FACE('',(#262,#263),#22,.T.);
#433=ADVANCED_FACE('',(#264,#265),#38,.F.);
#434=ADVANCED_FACE('',(#266),#271,.T.);
#435=ADVANCED_FACE('',(#267),#272,.F.);
#436=CLOSED_SHELL('',(#416,#417,#418,#419,#420,#421,#422,#423,#424,#425,
#426,#427,#428,#429,#430,#431,#432,#433,#434,#435));
#437=MANIFOLD_SOLID_BREP('NOCUT',#436);
#438=SHAPE_DEFINITION_REPRESENTATION(#677,#439);
#439=SHAPE_REPRESENTATION('262011660',(#440),#672);
#440=AXIS2_PLACEMENT_3D('',#565,#479,#480);
#441=AXIS2_PLACEMENT_3D('',#566,#481,#482);
#442=AXIS2_PLACEMENT_3D('',#567,#483,#484);
#443=AXIS2_PLACEMENT_3D('',#572,#486,#487);
#444=AXIS2_PLACEMENT_3D('',#576,#489,#490);
#445=AXIS2_PLACEMENT_3D('',#577,#491,#492);
#446=AXIS2_PLACEMENT_3D('',#581,#494,#495);
#447=AXIS2_PLACEMENT_3D('',#585,#497,#498);
#448=AXIS2_PLACEMENT_3D('',#586,#499,#500);
#449=AXIS2_PLACEMENT_3D('',#587,#501,#502);
#450=AXIS2_PLACEMENT_3D('',#592,#504,#505);
#451=AXIS2_PLACEMENT_3D('',#595,#507,#508);
#452=AXIS2_PLACEMENT_3D('',#604,#509,#510);
#453=AXIS2_PLACEMENT_3D('',#613,#511,#512);
#454=AXIS2_PLACEMENT_3D('',#614,#513,#514);
#455=AXIS2_PLACEMENT_3D('',#619,#516,#517);
#456=AXIS2_PLACEMENT_3D('',#622,#519,#520);
#457=AXIS2_PLACEMENT_3D('',#631,#521,#522);
#458=AXIS2_PLACEMENT_3D('',#640,#523,#524);
#459=AXIS2_PLACEMENT_3D('',#641,#525,#526);
#460=AXIS2_PLACEMENT_3D('',#643,#527,#528);
#461=AXIS2_PLACEMENT_3D('',#645,#529,#530);
#462=AXIS2_PLACEMENT_3D('',#646,#531,#532);
#463=AXIS2_PLACEMENT_3D('',#648,#533,#534);
#464=AXIS2_PLACEMENT_3D('',#650,#535,#536);
#465=AXIS2_PLACEMENT_3D('',#651,#537,#538);
#466=AXIS2_PLACEMENT_3D('',#653,#539,#540);
#467=AXIS2_PLACEMENT_3D('',#654,#541,#542);
#468=AXIS2_PLACEMENT_3D('',#655,#543,#544);
#469=AXIS2_PLACEMENT_3D('',#657,#545,#546);
#470=AXIS2_PLACEMENT_3D('',#658,#547,#548);
#471=AXIS2_PLACEMENT_3D('',#659,#549,#550);
#472=AXIS2_PLACEMENT_3D('',#661,#551,#552);
#473=AXIS2_PLACEMENT_3D('',#663,#553,#554);
#474=AXIS2_PLACEMENT_3D('',#664,#555,#556);
#475=AXIS2_PLACEMENT_3D('',#666,#557,#558);
#476=AXIS2_PLACEMENT_3D('',#667,#559,#560);
#477=AXIS2_PLACEMENT_3D('',#669,#561,#562);
#478=AXIS2_PLACEMENT_3D('',#670,#563,#564);
#479=DIRECTION('',(0.,0.,1.));
#480=DIRECTION('',(1.,0.,0.));
#481=DIRECTION('',(0.,0.,1.));
#482=DIRECTION('',(1.,0.,0.));
#483=DIRECTION('',(0.,0.,1.));
#484=DIRECTION('',(1.,0.,0.));
#485=DIRECTION('',(0.,1.,0.));
#486=DIRECTION('',(0.,0.,1.));
#487=DIRECTION('',(1.,0.,0.));
#488=DIRECTION('',(0.,1.,0.));
#489=DIRECTION('',(0.,0.,1.));
#490=DIRECTION('',(1.,0.,0.));
#491=DIRECTION('',(0.,0.,1.));
#492=DIRECTION('',(1.,0.,0.));
#493=DIRECTION('',(0.,0.,1.));
#494=DIRECTION('',(0.,0.,-1.));
#495=DIRECTION('',(-1.,0.,0.));
#496=DIRECTION('',(0.,0.,1.));
#497=DIRECTION('',(0.,0.,1.));
#498=DIRECTION('',(1.,0.,0.));
#499=DIRECTION('',(0.,0.,-1.));
#500=DIRECTION('',(-1.,0.,0.));
#501=DIRECTION('',(0.,0.,-1.));
#502=DIRECTION('',(-1.,0.,0.));
#503=DIRECTION('',(0.,1.,0.));
#504=DIRECTION('',(0.,0.,-1.));
#505=DIRECTION('',(-1.,0.,0.));
#506=DIRECTION('',(0.,1.,0.));
#507=DIRECTION('',(0.,0.,1.));
#508=DIRECTION('',(1.,0.,0.));
#509=DIRECTION('',(0.,0.,-1.));
#510=DIRECTION('',(-1.,0.,0.));
#511=DIRECTION('',(0.,0.,1.));
#512=DIRECTION('',(1.,0.,0.));
#513=DIRECTION('',(0.,0.,-1.));
#514=DIRECTION('',(-1.,0.,0.));
#515=DIRECTION('',(0.,0.,1.));
#516=DIRECTION('',(0.,0.,1.));
#517=DIRECTION('',(1.,0.,0.));
#518=DIRECTION('',(0.,0.,1.));
#519=DIRECTION('',(0.,0.,1.));
#520=DIRECTION('',(1.,0.,0.));
#521=DIRECTION('',(0.,0.,-1.));
#522=DIRECTION('',(-1.,0.,0.));
#523=DIRECTION('',(0.,0.,1.));
#524=DIRECTION('',(1.,0.,0.));
#525=DIRECTION('',(0.,0.,1.));
#526=DIRECTION('',(1.,0.,0.));
#527=DIRECTION('',(0.,0.,-1.));
#528=DIRECTION('',(1.,0.,0.));
#529=DIRECTION('',(0.,0.,1.));
#530=DIRECTION('',(1.,0.,0.));
#531=DIRECTION('',(0.,0.,1.));
#532=DIRECTION('',(1.,0.,0.));
#533=DIRECTION('',(0.,0.,1.));
#534=DIRECTION('',(1.,0.,0.));
#535=DIRECTION('',(0.,0.,1.));
#536=DIRECTION('',(1.,0.,0.));
#537=DIRECTION('',(0.,0.,1.));
#538=DIRECTION('',(1.,0.,0.));
#539=DIRECTION('',(0.,0.,1.));
#540=DIRECTION('',(1.,0.,0.));
#541=DIRECTION('',(0.,0.,-1.));
#542=DIRECTION('',(-1.,0.,0.));
#543=DIRECTION('',(0.,0.,1.));
#544=DIRECTION('',(1.,0.,0.));
#545=DIRECTION('',(0.,0.,1.));
#546=DIRECTION('',(1.,0.,0.));
#547=DIRECTION('',(0.,0.,1.));
#548=DIRECTION('',(1.,0.,0.));
#549=DIRECTION('',(0.,0.,1.));
#550=DIRECTION('',(1.,0.,0.));
#551=DIRECTION('',(0.,0.,1.));
#552=DIRECTION('',(1.,0.,0.));
#553=DIRECTION('',(0.,0.,-1.));
#554=DIRECTION('',(-1.,0.,0.));
#555=DIRECTION('',(0.,0.,1.));
#556=DIRECTION('',(1.,0.,0.));
#557=DIRECTION('',(0.,0.,1.));
#558=DIRECTION('',(1.,0.,0.));
#559=DIRECTION('',(0.,0.,-1.));
#560=DIRECTION('',(1.,0.,0.));
#561=DIRECTION('',(1.,0.,0.));
#562=DIRECTION('',(0.,0.,-1.));
#563=DIRECTION('',(1.,0.,0.));
#564=DIRECTION('',(0.,0.,-1.));
#565=CARTESIAN_POINT('',(0.,0.,0.));
#566=CARTESIAN_POINT('',(30.,0.,48.5));
#567=CARTESIAN_POINT('',(0.,0.,48.5));
#568=CARTESIAN_POINT('',(11.2,0.,48.5));
#569=CARTESIAN_POINT('',(-25.,-109.274951505077,48.5));
#570=CARTESIAN_POINT('',(-25.,-14.9907471461565,48.5));
#571=CARTESIAN_POINT('',(-25.,14.9907471461565,48.5));
#572=CARTESIAN_POINT('',(0.,0.,48.5));
#573=CARTESIAN_POINT('',(25.,14.9907471461565,48.5));
#574=CARTESIAN_POINT('',(25.,-111.127186748746,48.5));
#575=CARTESIAN_POINT('',(25.,-14.9907471461565,48.5));
#576=CARTESIAN_POINT('',(0.,0.,48.5));
#577=CARTESIAN_POINT('',(0.,0.,71.5));
#578=CARTESIAN_POINT('',(-25.,16.583123951777,71.5));
#579=CARTESIAN_POINT('',(-25.,16.583123951777,77.65));
#580=CARTESIAN_POINT('',(-25.,16.583123951777,49.35));
#581=CARTESIAN_POINT('',(0.,0.,77.65));
#582=CARTESIAN_POINT('',(25.,16.583123951777,77.65));
#583=CARTESIAN_POINT('',(25.,16.583123951777,71.5));
#584=CARTESIAN_POINT('',(25.,16.583123951777,49.35));
#585=CARTESIAN_POINT('',(0.,0.,49.35));
#586=CARTESIAN_POINT('',(30.,0.,78.5));
#587=CARTESIAN_POINT('',(0.,0.,78.5));
#588=CARTESIAN_POINT('',(25.,14.9907471461565,78.5));
#589=CARTESIAN_POINT('',(-25.,14.9907471461565,78.5));
#590=CARTESIAN_POINT('',(-25.,-109.274951505077,78.5));
#591=CARTESIAN_POINT('',(-25.,-14.9907471461565,78.5));
#592=CARTESIAN_POINT('',(0.,0.,78.5));
#593=CARTESIAN_POINT('',(25.,-14.9907471461565,78.5));
#594=CARTESIAN_POINT('',(25.,-111.127186748746,78.5));
#595=CARTESIAN_POINT('',(0.,0.,49.35));
#596=CARTESIAN_POINT('',(-25.,14.9907471461565,48.5));
#597=CARTESIAN_POINT('',(-25.,15.5265691908027,48.7755530973114));
#598=CARTESIAN_POINT('',(-25.,16.0571293126504,49.0592455233798));
#599=CARTESIAN_POINT('',(-25.,16.583123951777,49.35));
#600=CARTESIAN_POINT('',(25.,14.9907471461565,48.5));
#601=CARTESIAN_POINT('',(25.,15.5265691908027,48.7755530973114));
#602=CARTESIAN_POINT('',(25.,16.0571293126504,49.0592455233798));
#603=CARTESIAN_POINT('',(25.,16.583123951777,49.35));
#604=CARTESIAN_POINT('',(0.,0.,78.5));
#605=CARTESIAN_POINT('',(-25.,16.583123951777,77.65));
#606=CARTESIAN_POINT('',(-25.,16.0565482101962,77.9410756930878));
#607=CARTESIAN_POINT('',(-25.,15.525949988977,78.224765334867));
#608=CARTESIAN_POINT('',(-25.,14.9907471461565,78.5));
#609=CARTESIAN_POINT('',(25.,16.583123951777,77.65));
#610=CARTESIAN_POINT('',(25.,16.0565482101962,77.9410756930878));
#611=CARTESIAN_POINT('',(25.,15.525949988977,78.224765334867));
#612=CARTESIAN_POINT('',(25.,14.9907471461565,78.5));
#613=CARTESIAN_POINT('',(0.,0.,71.5));
#614=CARTESIAN_POINT('',(0.,0.,77.65));
#615=CARTESIAN_POINT('',(25.,-16.583123951777,77.65));
#616=CARTESIAN_POINT('',(-25.,-16.583123951777,77.65));
#617=CARTESIAN_POINT('',(-25.,-16.583123951777,71.5));
#618=CARTESIAN_POINT('',(-25.,-16.583123951777,49.35));
#619=CARTESIAN_POINT('',(0.,0.,49.35));
#620=CARTESIAN_POINT('',(25.,-16.583123951777,49.35));
#621=CARTESIAN_POINT('',(25.,-16.583123951777,71.5));
#622=CARTESIAN_POINT('',(0.,0.,49.35));
#623=CARTESIAN_POINT('',(-25.,-14.9907471461565,48.5));
#624=CARTESIAN_POINT('',(-25.,-15.5265691908027,48.7755530973114));
#625=CARTESIAN_POINT('',(-25.,-16.0571293126504,49.0592455233798));
#626=CARTESIAN_POINT('',(-25.,-16.583123951777,49.35));
#627=CARTESIAN_POINT('',(25.,-14.9907471461565,48.5));
#628=CARTESIAN_POINT('',(25.,-15.5265691908027,48.7755530973114));
#629=CARTESIAN_POINT('',(25.,-16.0571293126504,49.0592455233798));
#630=CARTESIAN_POINT('',(25.,-16.583123951777,49.35));
#631=CARTESIAN_POINT('',(0.,0.,78.5));
#632=CARTESIAN_POINT('',(-25.,-16.583123951777,77.65));
#633=CARTESIAN_POINT('',(-25.,-16.0565482101962,77.9410756930878));
#634=CARTESIAN_POINT('',(-25.,-15.525949988977,78.224765334867));
#635=CARTESIAN_POINT('',(-25.,-14.9907471461565,78.5));
#636=CARTESIAN_POINT('',(25.,-16.583123951777,77.65));
#637=CARTESIAN_POINT('',(25.,-16.0565482101962,77.9410756930878));
#638=CARTESIAN_POINT('',(25.,-15.525949988977,78.224765334867));
#639=CARTESIAN_POINT('',(25.,-14.9907471461565,78.5));
#640=CARTESIAN_POINT('',(0.,0.,62.));
#641=CARTESIAN_POINT('',(0.,0.,11.5));
#642=CARTESIAN_POINT('',(11.,0.,11.5));
#643=CARTESIAN_POINT('',(0.,0.,24.));
#644=CARTESIAN_POINT('',(11.,0.,24.));
#645=CARTESIAN_POINT('',(0.,0.,10.5));
#646=CARTESIAN_POINT('',(0.,0.,10.5));
#647=CARTESIAN_POINT('',(8.32218513910227,0.,10.5));
#648=CARTESIAN_POINT('',(0.,0.,10.5));
#649=CARTESIAN_POINT('',(10.,0.,10.5));
#650=CARTESIAN_POINT('',(0.,0.,62.));
#651=CARTESIAN_POINT('',(0.,0.,47.3009288394513));
#652=CARTESIAN_POINT('',(11.,0.,47.3009288394513));
#653=CARTESIAN_POINT('',(0.,0.,11.5));
#654=CARTESIAN_POINT('',(0.,0.,47.3009288394513));
#655=CARTESIAN_POINT('',(0.,0.,47.996472381959));
#656=CARTESIAN_POINT('',(10.8136296694844,0.,47.996472381959));
#657=CARTESIAN_POINT('',(0.,0.,48.1));
#658=CARTESIAN_POINT('',(0.,0.,46.1961524227066));
#659=CARTESIAN_POINT('',(0.,0.,30.0672667365567));
#660=CARTESIAN_POINT('',(5.25,0.,30.0672667365567));
#661=CARTESIAN_POINT('',(0.,0.,45.5));
#662=CARTESIAN_POINT('',(5.25,0.,45.5));
#663=CARTESIAN_POINT('',(0.,0.,30.0672667365567));
#664=CARTESIAN_POINT('',(0.,0.,11.088661519232));
#665=CARTESIAN_POINT('',(7.91726901872998,0.,11.088661519232));
#666=CARTESIAN_POINT('',(0.,0.,11.2));
#667=CARTESIAN_POINT('',(0.,0.,45.5));
#668=CARTESIAN_POINT('',(0.,0.,48.6545182498947));
#669=CARTESIAN_POINT('',(25.,-111.127186748746,78.5));
#670=CARTESIAN_POINT('',(-25.,-109.274951505077,78.5));
#671=MECHANICAL_DESIGN_GEOMETRIC_PRESENTATION_REPRESENTATION('',(#273,#274,
#275,#276,#277,#278,#279,#280,#281,#282,#283,#284,#285,#286,#287,#288,#289,
#290,#291,#292),#672);
#672=(
GEOMETRIC_REPRESENTATION_CONTEXT(3)
GLOBAL_UNCERTAINTY_ASSIGNED_CONTEXT((#673))
GLOBAL_UNIT_ASSIGNED_CONTEXT((#676,#675,#674))
REPRESENTATION_CONTEXT('262011660','TOP_LEVEL_ASSEMBLY_PART')
);
#673=UNCERTAINTY_MEASURE_WITH_UNIT(LENGTH_MEASURE(0.005),#676,
'DISTANCE_ACCURACY_VALUE','Maximum Tolerance applied to model');
#674=(
NAMED_UNIT(*)
SI_UNIT($,.STERADIAN.)
SOLID_ANGLE_UNIT()
);
#675=(
NAMED_UNIT(*)
PLANE_ANGLE_UNIT()
SI_UNIT($,.RADIAN.)
);
#676=(
LENGTH_UNIT()
NAMED_UNIT(*)
SI_UNIT(.MILLI.,.METRE.)
);
#677=PRODUCT_DEFINITION_SHAPE('','',#678);
#678=PRODUCT_DEFINITION('','',#680,#679);
#679=DESIGN_CONTEXT('',#686,'design');
#680=PRODUCT_DEFINITION_FORMATION_WITH_SPECIFIED_SOURCE('','',#682,
 .NOT_KNOWN.);
#681=PRODUCT_RELATED_PRODUCT_CATEGORY('','',(#682));
#682=PRODUCT('NOCUT','NOCUT','NOCUT',(#684));
#683=PRODUCT_CATEGORY('','');
#684=MECHANICAL_CONTEXT('',#686,'mechanical');
#685=APPLICATION_PROTOCOL_DEFINITION('international standard',
'config_control_design',2010,#686);
#686=APPLICATION_CONTEXT(
'configuration controlled 3D designs of mechanical parts and assemblie
s');
#687=AXIS2_PLACEMENT_3D('PCS',#688,#689,#690);
#688=CARTESIAN_POINT('',(0.,0.,30.5));
#689=DIRECTION('',(0.,0.,1.));
#690=DIRECTION('',(1.,0.,0.));
#691=AXIS2_PLACEMENT_3D('MCS',#692,#693,#694);
#692=CARTESIAN_POINT('',(0.,0.,30.5));
#693=DIRECTION('',(0.,0.,1.));
#694=DIRECTION('',(1.,0.,0.));
#695=AXIS2_PLACEMENT_3D('CSW',#696,#697,#698);
#696=CARTESIAN_POINT('',(0.,0.,10.5));
#697=DIRECTION('',(0.,0.,1.));
#698=DIRECTION('',(1.,0.,0.));
#699=CONSTRUCTIVE_GEOMETRY_REPRESENTATION_RELATIONSHIP('coordinate systems',$,#19,#700);
#700=CONSTRUCTIVE_GEOMETRY_REPRESENTATION('coordinate systems',(#687, #691, #695),#672);
ENDSEC;
END-ISO-10303-21;

