ISO-10303-21;
HEADER;
FILE_DESCRIPTION(
/* description */ (''),
/* implementation_level */ '2;1');
FILE_NAME(
/* name */ '462021132.stp',
/* time_stamp */ '2021-01-19T16:01:55',
/* author */ ('LRA'),
/* organization */ ('REGO-FIX'),
/* preprocessor_version */ ' Unknown',
/* originating_system */ 'SIEMENS PLM Software Solid Edge ST10',
/* authorization */ 'Unknown');
FILE_SCHEMA (('AUTOMOTIVE_DESIGN { 1 0 10303 214 2 1 1}'));
ENDSEC;
DATA;
#10=PROPERTY_DEFINITION_REPRESENTATION(#14,#12);
#11=PROPERTY_DEFINITION_REPRESENTATION(#15,#13);
#12=REPRESENTATION('',(#16),#743);
#13=REPRESENTATION('',(#17),#743);
#14=PROPERTY_DEFINITION('pmi validation property','',#748);
#15=PROPERTY_DEFINITION('pmi validation property','',#748);
#16=VALUE_REPRESENTATION_ITEM('number of annotations',COUNT_MEASURE(0.));
#17=VALUE_REPRESENTATION_ITEM('number of views',COUNT_MEASURE(0.));
#18=SHAPE_REPRESENTATION_RELATIONSHIP('','',#502,#19);
#19=ADVANCED_BREP_SHAPE_REPRESENTATION('',(#500),#743);
#20=TOROIDAL_SURFACE('',#536,5.94869745237835,0.5);
#21=TOROIDAL_SURFACE('',#537,5.25,1.);
#22=TOROIDAL_SURFACE('',#550,7.3,0.8);
#23=CONICAL_SURFACE('',#522,6.5,0.785398163397447);
#24=CONICAL_SURFACE('',#526,9.99999999999999,0.785398163397449);
#25=CONICAL_SURFACE('',#530,0.,1.0471975511966);
#26=CONICAL_SURFACE('',#534,3.75,0.139626340159547);
#27=CONICAL_SURFACE('',#541,4.25,1.0471975511966);
#28=CONICAL_SURFACE('',#551,10.,0.785398163397448);
#29=PLANE('',#519);
#30=PLANE('',#523);
#31=PLANE('',#528);
#32=PLANE('',#543);
#33=PLANE('',#544);
#34=PLANE('',#545);
#35=PLANE('',#546);
#36=PLANE('',#547);
#37=PLANE('',#548);
#38=LINE('',#670,#46);
#39=LINE('',#674,#47);
#40=LINE('',#680,#48);
#41=LINE('',#684,#49);
#42=LINE('',#730,#50);
#43=LINE('',#732,#51);
#44=LINE('',#735,#52);
#45=LINE('',#737,#53);
#46=VECTOR('',#566,1000.);
#47=VECTOR('',#569,1000.);
#48=VECTOR('',#574,1000.);
#49=VECTOR('',#577,1000.);
#50=VECTOR('',#638,1000.);
#51=VECTOR('',#641,1000.);
#52=VECTOR('',#646,1000.);
#53=VECTOR('',#649,1000.);
#54=ELLIPSE('',#509,14.142135623731,10.);
#55=ELLIPSE('',#510,14.1421356237309,10.);
#56=ELLIPSE('',#512,14.142135623731,10.);
#57=ELLIPSE('',#513,14.1421356237309,10.);
#58=ORIENTED_EDGE('',*,*,#120,.F.);
#59=ORIENTED_EDGE('',*,*,#121,.T.);
#60=ORIENTED_EDGE('',*,*,#122,.T.);
#61=ORIENTED_EDGE('',*,*,#123,.F.);
#62=ORIENTED_EDGE('',*,*,#124,.T.);
#63=ORIENTED_EDGE('',*,*,#125,.F.);
#64=ORIENTED_EDGE('',*,*,#126,.F.);
#65=ORIENTED_EDGE('',*,*,#127,.F.);
#66=ORIENTED_EDGE('',*,*,#128,.F.);
#67=ORIENTED_EDGE('',*,*,#129,.T.);
#68=ORIENTED_EDGE('',*,*,#130,.F.);
#69=ORIENTED_EDGE('',*,*,#131,.F.);
#70=ORIENTED_EDGE('',*,*,#132,.T.);
#71=ORIENTED_EDGE('',*,*,#133,.F.);
#72=ORIENTED_EDGE('',*,*,#134,.T.);
#73=ORIENTED_EDGE('',*,*,#133,.T.);
#74=ORIENTED_EDGE('',*,*,#135,.T.);
#75=ORIENTED_EDGE('',*,*,#136,.T.);
#76=ORIENTED_EDGE('',*,*,#136,.F.);
#77=ORIENTED_EDGE('',*,*,#134,.F.);
#78=ORIENTED_EDGE('',*,*,#137,.T.);
#79=ORIENTED_EDGE('',*,*,#138,.T.);
#80=ORIENTED_EDGE('',*,*,#139,.F.);
#81=ORIENTED_EDGE('',*,*,#127,.T.);
#82=ORIENTED_EDGE('',*,*,#140,.F.);
#83=ORIENTED_EDGE('',*,*,#139,.T.);
#84=ORIENTED_EDGE('',*,*,#120,.T.);
#85=ORIENTED_EDGE('',*,*,#141,.F.);
#86=ORIENTED_EDGE('',*,*,#142,.F.);
#87=ORIENTED_EDGE('',*,*,#141,.T.);
#88=ORIENTED_EDGE('',*,*,#143,.F.);
#89=ORIENTED_EDGE('',*,*,#142,.T.);
#90=ORIENTED_EDGE('',*,*,#135,.F.);
#91=ORIENTED_EDGE('',*,*,#143,.T.);
#92=ORIENTED_EDGE('',*,*,#144,.F.);
#93=ORIENTED_EDGE('',*,*,#140,.T.);
#94=ORIENTED_EDGE('',*,*,#145,.F.);
#95=ORIENTED_EDGE('',*,*,#144,.T.);
#96=ORIENTED_EDGE('',*,*,#146,.T.);
#97=ORIENTED_EDGE('',*,*,#145,.T.);
#98=ORIENTED_EDGE('',*,*,#123,.T.);
#99=ORIENTED_EDGE('',*,*,#147,.T.);
#100=ORIENTED_EDGE('',*,*,#126,.T.);
#101=ORIENTED_EDGE('',*,*,#148,.T.);
#102=ORIENTED_EDGE('',*,*,#124,.F.);
#103=ORIENTED_EDGE('',*,*,#147,.F.);
#104=ORIENTED_EDGE('',*,*,#125,.T.);
#105=ORIENTED_EDGE('',*,*,#148,.F.);
#106=ORIENTED_EDGE('',*,*,#128,.T.);
#107=ORIENTED_EDGE('',*,*,#149,.T.);
#108=ORIENTED_EDGE('',*,*,#131,.T.);
#109=ORIENTED_EDGE('',*,*,#150,.T.);
#110=ORIENTED_EDGE('',*,*,#129,.F.);
#111=ORIENTED_EDGE('',*,*,#149,.F.);
#112=ORIENTED_EDGE('',*,*,#130,.T.);
#113=ORIENTED_EDGE('',*,*,#150,.F.);
#114=ORIENTED_EDGE('',*,*,#121,.F.);
#115=ORIENTED_EDGE('',*,*,#146,.F.);
#116=ORIENTED_EDGE('',*,*,#132,.F.);
#117=ORIENTED_EDGE('',*,*,#138,.F.);
#118=ORIENTED_EDGE('',*,*,#137,.F.);
#119=ORIENTED_EDGE('',*,*,#122,.F.);
#120=EDGE_CURVE('',#151,#151,#178,.F.);
#121=EDGE_CURVE('',#152,#152,#179,.T.);
#122=EDGE_CURVE('',#153,#153,#180,.T.);
#123=EDGE_CURVE('',#154,#155,#54,.T.);
#124=EDGE_CURVE('',#154,#156,#38,.F.);
#125=EDGE_CURVE('',#157,#156,#55,.T.);
#126=EDGE_CURVE('',#155,#157,#39,.F.);
#127=EDGE_CURVE('',#158,#158,#181,.T.);
#128=EDGE_CURVE('',#159,#160,#56,.T.);
#129=EDGE_CURVE('',#159,#161,#40,.T.);
#130=EDGE_CURVE('',#162,#161,#57,.T.);
#131=EDGE_CURVE('',#160,#162,#41,.T.);
#132=EDGE_CURVE('',#163,#163,#182,.F.);
#133=EDGE_CURVE('',#164,#164,#183,.T.);
#134=EDGE_CURVE('',#165,#165,#184,.T.);
#135=EDGE_CURVE('',#166,#166,#185,.T.);
#136=EDGE_CURVE('',#167,#167,#186,.F.);
#137=EDGE_CURVE('',#168,#168,#187,.F.);
#138=EDGE_CURVE('',#169,#169,#188,.T.);
#139=EDGE_CURVE('',#170,#170,#189,.T.);
#140=EDGE_CURVE('',#171,#171,#190,.T.);
#141=EDGE_CURVE('',#172,#172,#191,.T.);
#142=EDGE_CURVE('',#173,#173,#192,.T.);
#143=EDGE_CURVE('',#174,#174,#193,.T.);
#144=EDGE_CURVE('',#175,#175,#194,.T.);
#145=EDGE_CURVE('',#176,#176,#195,.T.);
#146=EDGE_CURVE('',#177,#177,#196,.F.);
#147=EDGE_CURVE('',#155,#154,#42,.T.);
#148=EDGE_CURVE('',#157,#156,#43,.T.);
#149=EDGE_CURVE('',#160,#159,#44,.T.);
#150=EDGE_CURVE('',#162,#161,#45,.T.);
#151=VERTEX_POINT('',#661);
#152=VERTEX_POINT('',#663);
#153=VERTEX_POINT('',#666);
#154=VERTEX_POINT('',#668);
#155=VERTEX_POINT('',#669);
#156=VERTEX_POINT('',#671);
#157=VERTEX_POINT('',#673);
#158=VERTEX_POINT('',#676);
#159=VERTEX_POINT('',#678);
#160=VERTEX_POINT('',#679);
#161=VERTEX_POINT('',#681);
#162=VERTEX_POINT('',#683);
#163=VERTEX_POINT('',#687);
#164=VERTEX_POINT('',#689);
#165=VERTEX_POINT('',#692);
#166=VERTEX_POINT('',#695);
#167=VERTEX_POINT('',#697);
#168=VERTEX_POINT('',#701);
#169=VERTEX_POINT('',#703);
#170=VERTEX_POINT('',#706);
#171=VERTEX_POINT('',#709);
#172=VERTEX_POINT('',#712);
#173=VERTEX_POINT('',#715);
#174=VERTEX_POINT('',#718);
#175=VERTEX_POINT('',#722);
#176=VERTEX_POINT('',#725);
#177=VERTEX_POINT('',#728);
#178=CIRCLE('',#505,3.4585);
#179=CIRCLE('',#506,3.4585);
#180=CIRCLE('',#508,10.);
#181=CIRCLE('',#511,9.99999999999999);
#182=CIRCLE('',#515,6.5);
#183=CIRCLE('',#516,6.5);
#184=CIRCLE('',#518,6.5);
#185=CIRCLE('',#520,5.64869745237835);
#186=CIRCLE('',#521,6.);
#187=CIRCLE('',#524,9.5);
#188=CIRCLE('',#525,7.3);
#189=CIRCLE('',#527,9.15);
#190=CIRCLE('',#529,5.25);
#191=CIRCLE('',#531,3.75);
#192=CIRCLE('',#533,3.75);
#193=CIRCLE('',#535,5.45356341800757);
#194=CIRCLE('',#538,4.25);
#195=CIRCLE('',#540,4.25);
#196=CIRCLE('',#542,3.4585);
#197=EDGE_LOOP('',(#58));
#198=EDGE_LOOP('',(#59));
#199=EDGE_LOOP('',(#60));
#200=EDGE_LOOP('',(#61,#62,#63,#64));
#201=EDGE_LOOP('',(#65));
#202=EDGE_LOOP('',(#66,#67,#68,#69));
#203=EDGE_LOOP('',(#70));
#204=EDGE_LOOP('',(#71));
#205=EDGE_LOOP('',(#72));
#206=EDGE_LOOP('',(#73));
#207=EDGE_LOOP('',(#74));
#208=EDGE_LOOP('',(#75));
#209=EDGE_LOOP('',(#76));
#210=EDGE_LOOP('',(#77));
#211=EDGE_LOOP('',(#78));
#212=EDGE_LOOP('',(#79));
#213=EDGE_LOOP('',(#80));
#214=EDGE_LOOP('',(#81));
#215=EDGE_LOOP('',(#82));
#216=EDGE_LOOP('',(#83));
#217=EDGE_LOOP('',(#84));
#218=EDGE_LOOP('',(#85));
#219=EDGE_LOOP('',(#86));
#220=EDGE_LOOP('',(#87));
#221=EDGE_LOOP('',(#88));
#222=EDGE_LOOP('',(#89));
#223=EDGE_LOOP('',(#90));
#224=EDGE_LOOP('',(#91));
#225=EDGE_LOOP('',(#92));
#226=EDGE_LOOP('',(#93));
#227=EDGE_LOOP('',(#94));
#228=EDGE_LOOP('',(#95));
#229=EDGE_LOOP('',(#96));
#230=EDGE_LOOP('',(#97));
#231=EDGE_LOOP('',(#98,#99));
#232=EDGE_LOOP('',(#100,#101,#102,#103));
#233=EDGE_LOOP('',(#104,#105));
#234=EDGE_LOOP('',(#106,#107));
#235=EDGE_LOOP('',(#108,#109,#110,#111));
#236=EDGE_LOOP('',(#112,#113));
#237=EDGE_LOOP('',(#114));
#238=EDGE_LOOP('',(#115));
#239=EDGE_LOOP('',(#116));
#240=EDGE_LOOP('',(#117));
#241=EDGE_LOOP('',(#118));
#242=EDGE_LOOP('',(#119));
#243=FACE_BOUND('',#197,.T.);
#244=FACE_BOUND('',#198,.T.);
#245=FACE_BOUND('',#199,.T.);
#246=FACE_BOUND('',#200,.T.);
#247=FACE_BOUND('',#201,.T.);
#248=FACE_BOUND('',#202,.T.);
#249=FACE_BOUND('',#203,.T.);
#250=FACE_BOUND('',#204,.T.);
#251=FACE_BOUND('',#205,.T.);
#252=FACE_BOUND('',#206,.T.);
#253=FACE_BOUND('',#207,.T.);
#254=FACE_BOUND('',#208,.T.);
#255=FACE_BOUND('',#209,.T.);
#256=FACE_BOUND('',#210,.T.);
#257=FACE_BOUND('',#211,.T.);
#258=FACE_BOUND('',#212,.T.);
#259=FACE_BOUND('',#213,.T.);
#260=FACE_BOUND('',#214,.T.);
#261=FACE_BOUND('',#215,.T.);
#262=FACE_BOUND('',#216,.T.);
#263=FACE_BOUND('',#217,.T.);
#264=FACE_BOUND('',#218,.T.);
#265=FACE_BOUND('',#219,.T.);
#266=FACE_BOUND('',#220,.T.);
#267=FACE_BOUND('',#221,.T.);
#268=FACE_BOUND('',#222,.T.);
#269=FACE_BOUND('',#223,.T.);
#270=FACE_BOUND('',#224,.T.);
#271=FACE_BOUND('',#225,.T.);
#272=FACE_BOUND('',#226,.T.);
#273=FACE_BOUND('',#227,.T.);
#274=FACE_BOUND('',#228,.T.);
#275=FACE_BOUND('',#229,.T.);
#276=FACE_BOUND('',#230,.T.);
#277=FACE_BOUND('',#231,.T.);
#278=FACE_BOUND('',#232,.T.);
#279=FACE_BOUND('',#233,.T.);
#280=FACE_BOUND('',#234,.T.);
#281=FACE_BOUND('',#235,.T.);
#282=FACE_BOUND('',#236,.T.);
#283=FACE_BOUND('',#237,.T.);
#284=FACE_BOUND('',#238,.T.);
#285=FACE_BOUND('',#239,.T.);
#286=FACE_BOUND('',#240,.T.);
#287=FACE_BOUND('',#241,.T.);
#288=FACE_BOUND('',#242,.T.);
#289=CYLINDRICAL_SURFACE('',#504,3.4585);
#290=CYLINDRICAL_SURFACE('',#507,10.);
#291=CYLINDRICAL_SURFACE('',#514,6.5);
#292=CYLINDRICAL_SURFACE('',#517,6.5);
#293=CYLINDRICAL_SURFACE('',#532,3.75);
#294=CYLINDRICAL_SURFACE('',#539,4.25);
#295=CYLINDRICAL_SURFACE('',#549,3.4585);
#296=STYLED_ITEM('',(#321),#474);
#297=STYLED_ITEM('',(#322),#475);
#298=STYLED_ITEM('',(#323),#476);
#299=STYLED_ITEM('',(#324),#477);
#300=STYLED_ITEM('',(#325),#478);
#301=STYLED_ITEM('',(#326),#479);
#302=STYLED_ITEM('',(#327),#480);
#303=STYLED_ITEM('',(#328),#481);
#304=STYLED_ITEM('',(#329),#482);
#305=STYLED_ITEM('',(#330),#483);
#306=STYLED_ITEM('',(#331),#484);
#307=STYLED_ITEM('',(#332),#485);
#308=STYLED_ITEM('',(#333),#486);
#309=STYLED_ITEM('',(#334),#487);
#310=STYLED_ITEM('',(#335),#488);
#311=STYLED_ITEM('',(#336),#489);
#312=STYLED_ITEM('',(#337),#490);
#313=STYLED_ITEM('',(#338),#491);
#314=STYLED_ITEM('',(#339),#492);
#315=STYLED_ITEM('',(#340),#493);
#316=STYLED_ITEM('',(#341),#494);
#317=STYLED_ITEM('',(#342),#495);
#318=STYLED_ITEM('',(#343),#496);
#319=STYLED_ITEM('',(#344),#497);
#320=STYLED_ITEM('',(#345),#498);
#321=PRESENTATION_STYLE_ASSIGNMENT((#346));
#322=PRESENTATION_STYLE_ASSIGNMENT((#347));
#323=PRESENTATION_STYLE_ASSIGNMENT((#348));
#324=PRESENTATION_STYLE_ASSIGNMENT((#349));
#325=PRESENTATION_STYLE_ASSIGNMENT((#350));
#326=PRESENTATION_STYLE_ASSIGNMENT((#351));
#327=PRESENTATION_STYLE_ASSIGNMENT((#352));
#328=PRESENTATION_STYLE_ASSIGNMENT((#353));
#329=PRESENTATION_STYLE_ASSIGNMENT((#354));
#330=PRESENTATION_STYLE_ASSIGNMENT((#355));
#331=PRESENTATION_STYLE_ASSIGNMENT((#356));
#332=PRESENTATION_STYLE_ASSIGNMENT((#357));
#333=PRESENTATION_STYLE_ASSIGNMENT((#358));
#334=PRESENTATION_STYLE_ASSIGNMENT((#359));
#335=PRESENTATION_STYLE_ASSIGNMENT((#360));
#336=PRESENTATION_STYLE_ASSIGNMENT((#361));
#337=PRESENTATION_STYLE_ASSIGNMENT((#362));
#338=PRESENTATION_STYLE_ASSIGNMENT((#363));
#339=PRESENTATION_STYLE_ASSIGNMENT((#364));
#340=PRESENTATION_STYLE_ASSIGNMENT((#365));
#341=PRESENTATION_STYLE_ASSIGNMENT((#366));
#342=PRESENTATION_STYLE_ASSIGNMENT((#367));
#343=PRESENTATION_STYLE_ASSIGNMENT((#368));
#344=PRESENTATION_STYLE_ASSIGNMENT((#369));
#345=PRESENTATION_STYLE_ASSIGNMENT((#370));
#346=SURFACE_STYLE_USAGE(.BOTH.,#371);
#347=SURFACE_STYLE_USAGE(.BOTH.,#372);
#348=SURFACE_STYLE_USAGE(.BOTH.,#373);
#349=SURFACE_STYLE_USAGE(.BOTH.,#374);
#350=SURFACE_STYLE_USAGE(.BOTH.,#375);
#351=SURFACE_STYLE_USAGE(.BOTH.,#376);
#352=SURFACE_STYLE_USAGE(.BOTH.,#377);
#353=SURFACE_STYLE_USAGE(.BOTH.,#378);
#354=SURFACE_STYLE_USAGE(.BOTH.,#379);
#355=SURFACE_STYLE_USAGE(.BOTH.,#380);
#356=SURFACE_STYLE_USAGE(.BOTH.,#381);
#357=SURFACE_STYLE_USAGE(.BOTH.,#382);
#358=SURFACE_STYLE_USAGE(.BOTH.,#383);
#359=SURFACE_STYLE_USAGE(.BOTH.,#384);
#360=SURFACE_STYLE_USAGE(.BOTH.,#385);
#361=SURFACE_STYLE_USAGE(.BOTH.,#386);
#362=SURFACE_STYLE_USAGE(.BOTH.,#387);
#363=SURFACE_STYLE_USAGE(.BOTH.,#388);
#364=SURFACE_STYLE_USAGE(.BOTH.,#389);
#365=SURFACE_STYLE_USAGE(.BOTH.,#390);
#366=SURFACE_STYLE_USAGE(.BOTH.,#391);
#367=SURFACE_STYLE_USAGE(.BOTH.,#392);
#368=SURFACE_STYLE_USAGE(.BOTH.,#393);
#369=SURFACE_STYLE_USAGE(.BOTH.,#394);
#370=SURFACE_STYLE_USAGE(.BOTH.,#395);
#371=SURFACE_SIDE_STYLE('',(#396));
#372=SURFACE_SIDE_STYLE('',(#397));
#373=SURFACE_SIDE_STYLE('',(#398));
#374=SURFACE_SIDE_STYLE('',(#399));
#375=SURFACE_SIDE_STYLE('',(#400));
#376=SURFACE_SIDE_STYLE('',(#401));
#377=SURFACE_SIDE_STYLE('',(#402));
#378=SURFACE_SIDE_STYLE('',(#403));
#379=SURFACE_SIDE_STYLE('',(#404));
#380=SURFACE_SIDE_STYLE('',(#405));
#381=SURFACE_SIDE_STYLE('',(#406));
#382=SURFACE_SIDE_STYLE('',(#407));
#383=SURFACE_SIDE_STYLE('',(#408));
#384=SURFACE_SIDE_STYLE('',(#409));
#385=SURFACE_SIDE_STYLE('',(#410));
#386=SURFACE_SIDE_STYLE('',(#411));
#387=SURFACE_SIDE_STYLE('',(#412));
#388=SURFACE_SIDE_STYLE('',(#413));
#389=SURFACE_SIDE_STYLE('',(#414));
#390=SURFACE_SIDE_STYLE('',(#415));
#391=SURFACE_SIDE_STYLE('',(#416));
#392=SURFACE_SIDE_STYLE('',(#417));
#393=SURFACE_SIDE_STYLE('',(#418));
#394=SURFACE_SIDE_STYLE('',(#419));
#395=SURFACE_SIDE_STYLE('',(#420));
#396=SURFACE_STYLE_FILL_AREA(#421);
#397=SURFACE_STYLE_FILL_AREA(#422);
#398=SURFACE_STYLE_FILL_AREA(#423);
#399=SURFACE_STYLE_FILL_AREA(#424);
#400=SURFACE_STYLE_FILL_AREA(#425);
#401=SURFACE_STYLE_FILL_AREA(#426);
#402=SURFACE_STYLE_FILL_AREA(#427);
#403=SURFACE_STYLE_FILL_AREA(#428);
#404=SURFACE_STYLE_FILL_AREA(#429);
#405=SURFACE_STYLE_FILL_AREA(#430);
#406=SURFACE_STYLE_FILL_AREA(#431);
#407=SURFACE_STYLE_FILL_AREA(#432);
#408=SURFACE_STYLE_FILL_AREA(#433);
#409=SURFACE_STYLE_FILL_AREA(#434);
#410=SURFACE_STYLE_FILL_AREA(#435);
#411=SURFACE_STYLE_FILL_AREA(#436);
#412=SURFACE_STYLE_FILL_AREA(#437);
#413=SURFACE_STYLE_FILL_AREA(#438);
#414=SURFACE_STYLE_FILL_AREA(#439);
#415=SURFACE_STYLE_FILL_AREA(#440);
#416=SURFACE_STYLE_FILL_AREA(#441);
#417=SURFACE_STYLE_FILL_AREA(#442);
#418=SURFACE_STYLE_FILL_AREA(#443);
#419=SURFACE_STYLE_FILL_AREA(#444);
#420=SURFACE_STYLE_FILL_AREA(#445);
#421=FILL_AREA_STYLE('',(#446));
#422=FILL_AREA_STYLE('',(#447));
#423=FILL_AREA_STYLE('',(#448));
#424=FILL_AREA_STYLE('',(#449));
#425=FILL_AREA_STYLE('',(#450));
#426=FILL_AREA_STYLE('',(#451));
#427=FILL_AREA_STYLE('',(#452));
#428=FILL_AREA_STYLE('',(#453));
#429=FILL_AREA_STYLE('',(#454));
#430=FILL_AREA_STYLE('',(#455));
#431=FILL_AREA_STYLE('',(#456));
#432=FILL_AREA_STYLE('',(#457));
#433=FILL_AREA_STYLE('',(#458));
#434=FILL_AREA_STYLE('',(#459));
#435=FILL_AREA_STYLE('',(#460));
#436=FILL_AREA_STYLE('',(#461));
#437=FILL_AREA_STYLE('',(#462));
#438=FILL_AREA_STYLE('',(#463));
#439=FILL_AREA_STYLE('',(#464));
#440=FILL_AREA_STYLE('',(#465));
#441=FILL_AREA_STYLE('',(#466));
#442=FILL_AREA_STYLE('',(#467));
#443=FILL_AREA_STYLE('',(#468));
#444=FILL_AREA_STYLE('',(#469));
#445=FILL_AREA_STYLE('',(#470));
#446=FILL_AREA_STYLE_COLOUR('',#471);
#447=FILL_AREA_STYLE_COLOUR('',#471);
#448=FILL_AREA_STYLE_COLOUR('',#472);
#449=FILL_AREA_STYLE_COLOUR('',#473);
#450=FILL_AREA_STYLE_COLOUR('',#472);
#451=FILL_AREA_STYLE_COLOUR('',#472);
#452=FILL_AREA_STYLE_COLOUR('',#471);
#453=FILL_AREA_STYLE_COLOUR('',#471);
#454=FILL_AREA_STYLE_COLOUR('',#471);
#455=FILL_AREA_STYLE_COLOUR('',#472);
#456=FILL_AREA_STYLE_COLOUR('',#472);
#457=FILL_AREA_STYLE_COLOUR('',#472);
#458=FILL_AREA_STYLE_COLOUR('',#472);
#459=FILL_AREA_STYLE_COLOUR('',#472);
#460=FILL_AREA_STYLE_COLOUR('',#472);
#461=FILL_AREA_STYLE_COLOUR('',#472);
#462=FILL_AREA_STYLE_COLOUR('',#471);
#463=FILL_AREA_STYLE_COLOUR('',#471);
#464=FILL_AREA_STYLE_COLOUR('',#471);
#465=FILL_AREA_STYLE_COLOUR('',#471);
#466=FILL_AREA_STYLE_COLOUR('',#471);
#467=FILL_AREA_STYLE_COLOUR('',#471);
#468=FILL_AREA_STYLE_COLOUR('',#473);
#469=FILL_AREA_STYLE_COLOUR('',#471);
#470=FILL_AREA_STYLE_COLOUR('',#471);
#471=COLOUR_RGB( ' ', 0.5, 0.5, 0.5 );
#472=COLOUR_RGB( ' ', 0.5, 0.5, 0.5 );
#473=COLOUR_RGB( ' ', 0.5, 0.5, 0.5 );
#474=ADVANCED_FACE('',(#243,#244),#289,.F.);
#475=ADVANCED_FACE('',(#245,#246,#247,#248),#290,.T.);
#476=ADVANCED_FACE('',(#249,#250),#291,.T.);
#477=ADVANCED_FACE('',(#251,#252),#292,.T.);
#478=ADVANCED_FACE('',(#253,#254),#29,.F.);
#479=ADVANCED_FACE('',(#255,#256),#23,.T.);
#480=ADVANCED_FACE('',(#257,#258),#30,.F.);
#481=ADVANCED_FACE('',(#259,#260),#24,.T.);
#482=ADVANCED_FACE('',(#261,#262),#31,.F.);
#483=ADVANCED_FACE('',(#263,#264),#25,.F.);
#484=ADVANCED_FACE('',(#265,#266),#293,.F.);
#485=ADVANCED_FACE('',(#267,#268),#26,.F.);
#486=ADVANCED_FACE('',(#269,#270),#20,.T.);
#487=ADVANCED_FACE('',(#271,#272),#21,.T.);
#488=ADVANCED_FACE('',(#273,#274),#294,.F.);
#489=ADVANCED_FACE('',(#275,#276),#27,.F.);
#490=ADVANCED_FACE('',(#277),#32,.T.);
#491=ADVANCED_FACE('',(#278),#33,.T.);
#492=ADVANCED_FACE('',(#279),#34,.T.);
#493=ADVANCED_FACE('',(#280),#35,.T.);
#494=ADVANCED_FACE('',(#281),#36,.T.);
#495=ADVANCED_FACE('',(#282),#37,.T.);
#496=ADVANCED_FACE('',(#283,#284),#295,.F.);
#497=ADVANCED_FACE('',(#285,#286),#22,.F.);
#498=ADVANCED_FACE('',(#287,#288),#28,.T.);
#499=CLOSED_SHELL('',(#474,#475,#476,#477,#478,#479,#480,#481,#482,#483,
#484,#485,#486,#487,#488,#489,#490,#491,#492,#493,#494,#495,#496,#497,#498));
#500=MANIFOLD_SOLID_BREP('NOCUT',#499);
#501=SHAPE_DEFINITION_REPRESENTATION(#748,#502);
#502=SHAPE_REPRESENTATION('462021132',(#503),#743);
#503=AXIS2_PLACEMENT_3D('',#658,#552,#553);
#504=AXIS2_PLACEMENT_3D('',#659,#554,#555);
#505=AXIS2_PLACEMENT_3D('',#660,#556,#557);
#506=AXIS2_PLACEMENT_3D('',#662,#558,#559);
#507=AXIS2_PLACEMENT_3D('',#664,#560,#561);
#508=AXIS2_PLACEMENT_3D('',#665,#562,#563);
#509=AXIS2_PLACEMENT_3D('',#667,#564,#565);
#510=AXIS2_PLACEMENT_3D('',#672,#567,#568);
#511=AXIS2_PLACEMENT_3D('',#675,#570,#571);
#512=AXIS2_PLACEMENT_3D('',#677,#572,#573);
#513=AXIS2_PLACEMENT_3D('',#682,#575,#576);
#514=AXIS2_PLACEMENT_3D('',#685,#578,#579);
#515=AXIS2_PLACEMENT_3D('',#686,#580,#581);
#516=AXIS2_PLACEMENT_3D('',#688,#582,#583);
#517=AXIS2_PLACEMENT_3D('',#690,#584,#585);
#518=AXIS2_PLACEMENT_3D('',#691,#586,#587);
#519=AXIS2_PLACEMENT_3D('',#693,#588,#589);
#520=AXIS2_PLACEMENT_3D('',#694,#590,#591);
#521=AXIS2_PLACEMENT_3D('',#696,#592,#593);
#522=AXIS2_PLACEMENT_3D('',#698,#594,#595);
#523=AXIS2_PLACEMENT_3D('',#699,#596,#597);
#524=AXIS2_PLACEMENT_3D('',#700,#598,#599);
#525=AXIS2_PLACEMENT_3D('',#702,#600,#601);
#526=AXIS2_PLACEMENT_3D('',#704,#602,#603);
#527=AXIS2_PLACEMENT_3D('',#705,#604,#605);
#528=AXIS2_PLACEMENT_3D('',#707,#606,#607);
#529=AXIS2_PLACEMENT_3D('',#708,#608,#609);
#530=AXIS2_PLACEMENT_3D('',#710,#610,#611);
#531=AXIS2_PLACEMENT_3D('',#711,#612,#613);
#532=AXIS2_PLACEMENT_3D('',#713,#614,#615);
#533=AXIS2_PLACEMENT_3D('',#714,#616,#617);
#534=AXIS2_PLACEMENT_3D('',#716,#618,#619);
#535=AXIS2_PLACEMENT_3D('',#717,#620,#621);
#536=AXIS2_PLACEMENT_3D('',#719,#622,#623);
#537=AXIS2_PLACEMENT_3D('',#720,#624,#625);
#538=AXIS2_PLACEMENT_3D('',#721,#626,#627);
#539=AXIS2_PLACEMENT_3D('',#723,#628,#629);
#540=AXIS2_PLACEMENT_3D('',#724,#630,#631);
#541=AXIS2_PLACEMENT_3D('',#726,#632,#633);
#542=AXIS2_PLACEMENT_3D('',#727,#634,#635);
#543=AXIS2_PLACEMENT_3D('',#729,#636,#637);
#544=AXIS2_PLACEMENT_3D('',#731,#639,#640);
#545=AXIS2_PLACEMENT_3D('',#733,#642,#643);
#546=AXIS2_PLACEMENT_3D('',#734,#644,#645);
#547=AXIS2_PLACEMENT_3D('',#736,#647,#648);
#548=AXIS2_PLACEMENT_3D('',#738,#650,#651);
#549=AXIS2_PLACEMENT_3D('',#739,#652,#653);
#550=AXIS2_PLACEMENT_3D('',#740,#654,#655);
#551=AXIS2_PLACEMENT_3D('',#741,#656,#657);
#552=DIRECTION('',(0.,0.,1.));
#553=DIRECTION('',(1.,0.,0.));
#554=DIRECTION('',(0.,0.,-1.));
#555=DIRECTION('',(1.,0.,0.));
#556=DIRECTION('',(0.,0.,-1.));
#557=DIRECTION('',(-1.,0.,0.));
#558=DIRECTION('',(0.,0.,1.));
#559=DIRECTION('',(1.,0.,0.));
#560=DIRECTION('',(0.,0.,1.));
#561=DIRECTION('',(1.,0.,0.));
#562=DIRECTION('',(0.,0.,1.));
#563=DIRECTION('',(1.,0.,0.));
#564=DIRECTION('',(0.70710678118655,0.,-0.707106781186545));
#565=DIRECTION('',(0.707106781186545,0.,0.70710678118655));
#566=DIRECTION('',(0.,0.,1.));
#567=DIRECTION('',(0.707106781186548,0.,0.707106781186548));
#568=DIRECTION('',(-0.707106781186548,0.,0.707106781186548));
#569=DIRECTION('',(0.,0.,1.));
#570=DIRECTION('',(0.,0.,1.));
#571=DIRECTION('',(1.,0.,0.));
#572=DIRECTION('',(-0.70710678118655,0.,0.707106781186546));
#573=DIRECTION('',(0.707106781186546,0.,0.70710678118655));
#574=DIRECTION('',(0.,0.,1.));
#575=DIRECTION('',(-0.707106781186546,0.,-0.707106781186549));
#576=DIRECTION('',(-0.707106781186549,0.,0.707106781186546));
#577=DIRECTION('',(0.,0.,1.));
#578=DIRECTION('',(0.,0.,1.));
#579=DIRECTION('',(1.,0.,0.));
#580=DIRECTION('',(0.,0.,1.));
#581=DIRECTION('',(1.,0.,0.));
#582=DIRECTION('',(0.,0.,-1.));
#583=DIRECTION('',(1.,0.,0.));
#584=DIRECTION('',(0.,0.,1.));
#585=DIRECTION('',(1.,0.,0.));
#586=DIRECTION('',(0.,0.,1.));
#587=DIRECTION('',(1.,0.,0.));
#588=DIRECTION('',(0.,0.,1.));
#589=DIRECTION('',(1.,0.,0.));
#590=DIRECTION('',(0.,0.,1.));
#591=DIRECTION('',(1.,0.,0.));
#592=DIRECTION('',(0.,0.,1.));
#593=DIRECTION('',(1.,0.,0.));
#594=DIRECTION('',(0.,0.,1.));
#595=DIRECTION('',(1.,0.,0.));
#596=DIRECTION('',(0.,0.,1.));
#597=DIRECTION('',(1.,0.,0.));
#598=DIRECTION('',(0.,0.,1.));
#599=DIRECTION('',(1.,0.,0.));
#600=DIRECTION('',(0.,0.,1.));
#601=DIRECTION('',(1.,0.,0.));
#602=DIRECTION('',(0.,0.,-1.));
#603=DIRECTION('',(-1.,0.,0.));
#604=DIRECTION('',(0.,0.,1.));
#605=DIRECTION('',(1.,0.,0.));
#606=DIRECTION('',(0.,0.,-1.));
#607=DIRECTION('',(-1.,0.,0.));
#608=DIRECTION('',(0.,0.,1.));
#609=DIRECTION('',(1.,0.,0.));
#610=DIRECTION('',(0.,0.,-1.));
#611=DIRECTION('',(-1.,0.,0.));
#612=DIRECTION('',(0.,0.,1.));
#613=DIRECTION('',(1.,0.,0.));
#614=DIRECTION('',(0.,0.,1.));
#615=DIRECTION('',(1.,0.,0.));
#616=DIRECTION('',(0.,0.,1.));
#617=DIRECTION('',(1.,0.,0.));
#618=DIRECTION('',(0.,0.,-1.));
#619=DIRECTION('',(-1.,0.,0.));
#620=DIRECTION('',(0.,0.,1.));
#621=DIRECTION('',(1.,0.,0.));
#622=DIRECTION('',(0.,0.,1.));
#623=DIRECTION('',(1.,0.,0.));
#624=DIRECTION('',(0.,0.,1.));
#625=DIRECTION('',(1.,0.,0.));
#626=DIRECTION('',(0.,0.,1.));
#627=DIRECTION('',(1.,0.,0.));
#628=DIRECTION('',(0.,0.,1.));
#629=DIRECTION('',(1.,0.,0.));
#630=DIRECTION('',(0.,0.,1.));
#631=DIRECTION('',(1.,0.,0.));
#632=DIRECTION('',(0.,0.,1.));
#633=DIRECTION('',(1.,0.,0.));
#634=DIRECTION('',(0.,0.,1.));
#635=DIRECTION('',(1.,0.,0.));
#636=DIRECTION('',(0.70710678118655,0.,-0.707106781186545));
#637=DIRECTION('',(-0.707106781186545,0.,-0.70710678118655));
#638=DIRECTION('',(0.,1.,0.));
#639=DIRECTION('',(1.,0.,0.));
#640=DIRECTION('',(0.,0.,-1.));
#641=DIRECTION('',(0.,1.,0.));
#642=DIRECTION('',(0.707106781186548,0.,0.707106781186548));
#643=DIRECTION('',(0.707106781186548,0.,-0.707106781186548));
#644=DIRECTION('',(-0.70710678118655,0.,0.707106781186546));
#645=DIRECTION('',(0.707106781186546,0.,0.70710678118655));
#646=DIRECTION('',(0.,1.,0.));
#647=DIRECTION('',(-1.,0.,-5.78241158658936E-16));
#648=DIRECTION('',(-5.78241158658936E-16,0.,1.));
#649=DIRECTION('',(0.,1.,0.));
#650=DIRECTION('',(-0.707106781186546,0.,-0.707106781186549));
#651=DIRECTION('',(-0.707106781186549,0.,0.707106781186546));
#652=DIRECTION('',(0.,0.,-1.));
#653=DIRECTION('',(1.,0.,0.));
#654=DIRECTION('',(0.,0.,1.));
#655=DIRECTION('',(1.,0.,0.));
#656=DIRECTION('',(0.,0.,1.));
#657=DIRECTION('',(1.,0.,0.));
#658=CARTESIAN_POINT('',(0.,0.,0.));
#659=CARTESIAN_POINT('',(3.46944695195361E-15,0.,79.5));
#660=CARTESIAN_POINT('',(0.,0.,24.6682976034688));
#661=CARTESIAN_POINT('',(-3.4585,0.,24.6682976034688));
#662=CARTESIAN_POINT('',(3.46944695195361E-15,0.,28.5));
#663=CARTESIAN_POINT('',(3.4585,0.,28.5));
#664=CARTESIAN_POINT('',(0.,0.,71.5));
#665=CARTESIAN_POINT('',(0.,0.,20.));
#666=CARTESIAN_POINT('',(10.,0.,20.));
#667=CARTESIAN_POINT('',(0.,0.,62.5));
#668=CARTESIAN_POINT('',(8.49999999999999,5.26782687642638,71.));
#669=CARTESIAN_POINT('',(8.49999999999999,-5.26782687642638,71.));
#670=CARTESIAN_POINT('',(8.49999999999999,5.26782687642638,71.5));
#671=CARTESIAN_POINT('',(8.49999999999999,5.26782687642639,27.));
#672=CARTESIAN_POINT('',(0.,0.,35.5));
#673=CARTESIAN_POINT('',(8.49999999999999,-5.26782687642639,27.));
#674=CARTESIAN_POINT('',(8.49999999999999,-5.26782687642638,71.5));
#675=CARTESIAN_POINT('',(0.,0.,78.65));
#676=CARTESIAN_POINT('',(9.99999999999999,0.,78.65));
#677=CARTESIAN_POINT('',(0.,0.,35.5000000000001));
#678=CARTESIAN_POINT('',(-8.50000000000004,5.2678268764263,27.));
#679=CARTESIAN_POINT('',(-8.50000000000001,-5.26782687642631,27.));
#680=CARTESIAN_POINT('',(-8.50000000000004,5.2678268764263,71.5));
#681=CARTESIAN_POINT('',(-8.50000000000001,5.26782687642634,33.));
#682=CARTESIAN_POINT('',(0.,0.,24.5));
#683=CARTESIAN_POINT('',(-8.50000000000001,-5.26782687642634,33.));
#684=CARTESIAN_POINT('',(-8.50000000000004,-5.2678268764263,71.5));
#685=CARTESIAN_POINT('',(0.,0.,62.));
#686=CARTESIAN_POINT('',(0.,0.,18.7));
#687=CARTESIAN_POINT('',(6.5,0.,18.7));
#688=CARTESIAN_POINT('',(0.,0.,16.));
#689=CARTESIAN_POINT('',(6.5,0.,16.));
#690=CARTESIAN_POINT('',(0.,0.,62.));
#691=CARTESIAN_POINT('',(0.,0.,8.));
#692=CARTESIAN_POINT('',(6.5,0.,8.));
#693=CARTESIAN_POINT('',(0.,0.,7.5));
#694=CARTESIAN_POINT('',(0.,0.,7.5));
#695=CARTESIAN_POINT('',(5.64869745237835,0.,7.5));
#696=CARTESIAN_POINT('',(0.,0.,7.5));
#697=CARTESIAN_POINT('',(6.,0.,7.5));
#698=CARTESIAN_POINT('',(0.,0.,8.));
#699=CARTESIAN_POINT('',(6.5,0.,19.5));
#700=CARTESIAN_POINT('',(0.,0.,19.5));
#701=CARTESIAN_POINT('',(9.5,0.,19.5));
#702=CARTESIAN_POINT('',(0.,0.,19.5));
#703=CARTESIAN_POINT('',(7.3,0.,19.5));
#704=CARTESIAN_POINT('',(0.,0.,78.65));
#705=CARTESIAN_POINT('',(0.,0.,79.5));
#706=CARTESIAN_POINT('',(9.15,0.,79.5));
#707=CARTESIAN_POINT('',(9.15,0.,79.5));
#708=CARTESIAN_POINT('',(0.,0.,79.5));
#709=CARTESIAN_POINT('',(5.25,0.,79.5));
#710=CARTESIAN_POINT('',(0.,0.,26.6650635094611));
#711=CARTESIAN_POINT('',(0.,0.,24.5));
#712=CARTESIAN_POINT('',(3.75,0.,24.5));
#713=CARTESIAN_POINT('',(0.,0.,46.1961524227066));
#714=CARTESIAN_POINT('',(0.,0.,19.9518970141723));
#715=CARTESIAN_POINT('',(3.75,0.,19.9518970141723));
#716=CARTESIAN_POINT('',(0.,0.,19.9518970141723));
#717=CARTESIAN_POINT('',(0.,0.,7.83041344951996));
#718=CARTESIAN_POINT('',(5.45356341800757,0.,7.83041344951996));
#719=CARTESIAN_POINT('',(0.,0.,7.9));
#720=CARTESIAN_POINT('',(0.,0.,78.5));
#721=CARTESIAN_POINT('',(0.,0.,78.5));
#722=CARTESIAN_POINT('',(4.25,0.,78.5));
#723=CARTESIAN_POINT('',(0.,0.,139.5));
#724=CARTESIAN_POINT('',(0.,0.,74.5));
#725=CARTESIAN_POINT('',(4.25,0.,74.5));
#726=CARTESIAN_POINT('',(0.,0.,74.5));
#727=CARTESIAN_POINT('',(0.,0.,74.0430272619364));
#728=CARTESIAN_POINT('',(3.4585,0.,74.0430272619364));
#729=CARTESIAN_POINT('',(8.49999999999999,-77.3563184232549,71.));
#730=CARTESIAN_POINT('',(8.49999999999999,-77.3563184232549,71.));
#731=CARTESIAN_POINT('',(8.49999999999999,-77.3563184232549,71.));
#732=CARTESIAN_POINT('',(8.49999999999999,-77.3563184232549,27.));
#733=CARTESIAN_POINT('',(8.49999999999999,-77.3563184232549,27.));
#734=CARTESIAN_POINT('',(-10.,-77.3563184232549,25.5));
#735=CARTESIAN_POINT('',(-8.50000000000001,-77.3563184232549,27.));
#736=CARTESIAN_POINT('',(-8.50000000000001,-77.3563184232549,27.));
#737=CARTESIAN_POINT('',(-8.50000000000001,-77.3563184232549,33.));
#738=CARTESIAN_POINT('',(-8.50000000000001,-77.3563184232549,33.));
#739=CARTESIAN_POINT('',(3.46944695195361E-15,0.,79.5));
#740=CARTESIAN_POINT('',(0.,0.,18.7));
#741=CARTESIAN_POINT('',(0.,0.,20.));
#742=MECHANICAL_DESIGN_GEOMETRIC_PRESENTATION_REPRESENTATION('',(#296,#297,
#298,#299,#300,#301,#302,#303,#304,#305,#306,#307,#308,#309,#310,#311,#312,
#313,#314,#315,#316,#317,#318,#319,#320),#743);
#743=(
GEOMETRIC_REPRESENTATION_CONTEXT(3)
GLOBAL_UNCERTAINTY_ASSIGNED_CONTEXT((#744))
GLOBAL_UNIT_ASSIGNED_CONTEXT((#747,#746,#745))
REPRESENTATION_CONTEXT('462021132','TOP_LEVEL_ASSEMBLY_PART')
);
#744=UNCERTAINTY_MEASURE_WITH_UNIT(LENGTH_MEASURE(0.005),#747,
'DISTANCE_ACCURACY_VALUE','Maximum Tolerance applied to model');
#745=(
NAMED_UNIT(*)
SI_UNIT($,.STERADIAN.)
SOLID_ANGLE_UNIT()
);
#746=(
NAMED_UNIT(*)
PLANE_ANGLE_UNIT()
SI_UNIT($,.RADIAN.)
);
#747=(
LENGTH_UNIT()
NAMED_UNIT(*)
SI_UNIT(.MILLI.,.METRE.)
);
#748=PRODUCT_DEFINITION_SHAPE('','',#749);
#749=PRODUCT_DEFINITION('','',#751,#750);
#750=DESIGN_CONTEXT('',#757,'design');
#751=PRODUCT_DEFINITION_FORMATION_WITH_SPECIFIED_SOURCE('','',#753,
 .NOT_KNOWN.);
#752=PRODUCT_RELATED_PRODUCT_CATEGORY('','',(#753));
#753=PRODUCT('NOCUT','NOCUT','NOCUT',(#755));
#754=PRODUCT_CATEGORY('','');
#755=MECHANICAL_CONTEXT('',#757,'mechanical');
#756=APPLICATION_PROTOCOL_DEFINITION('international standard',
'config_control_design',2010,#757);
#757=APPLICATION_CONTEXT(
'configuration controlled 3D designs of mechanical parts and assemblie
s');
#758=AXIS2_PLACEMENT_3D('PCS',#759,#760,#761);
#759=CARTESIAN_POINT('',(0.,0.,19.5));
#760=DIRECTION('',(0.,0.,1.));
#761=DIRECTION('',(1.,0.,0.));
#762=AXIS2_PLACEMENT_3D('MCS',#763,#764,#765);
#763=CARTESIAN_POINT('',(0.,0.,19.5));
#764=DIRECTION('',(0.,0.,1.));
#765=DIRECTION('',(1.,0.,0.));
#766=AXIS2_PLACEMENT_3D('CSW',#767,#768,#769);
#767=CARTESIAN_POINT('',(0.,0.,7.5));
#768=DIRECTION('',(0.,0.,1.));
#769=DIRECTION('',(1.,0.,0.));
#770=CONSTRUCTIVE_GEOMETRY_REPRESENTATION_RELATIONSHIP('coordinate systems',$,#19,#771);
#771=CONSTRUCTIVE_GEOMETRY_REPRESENTATION('coordinate systems',(#758, #762, #766),#743);
ENDSEC;
END-ISO-10303-21;

