ISO-10303-21;
HEADER;
FILE_DESCRIPTION(
/* description */ (''),
/* implementation_level */ '2;1');
FILE_NAME(
/* name */ '562021690.stp',
/* time_stamp */ '2021-06-01T09:32:06',
/* author */ ('LRA'),
/* organization */ ('REGO-FIX'),
/* preprocessor_version */ ' Unknown',
/* originating_system */ 'SIEMENS PLM Software Solid Edge ST10',
/* authorization */ 'Unknown');
FILE_SCHEMA (('AUTOMOTIVE_DESIGN { 1 0 10303 214 2 1 1}'));
ENDSEC;
DATA;
#10=PROPERTY_DEFINITION_REPRESENTATION(#14,#12);
#11=PROPERTY_DEFINITION_REPRESENTATION(#15,#13);
#12=REPRESENTATION('',(#16),#689);
#13=REPRESENTATION('',(#17),#689);
#14=PROPERTY_DEFINITION('pmi validation property','',#694);
#15=PROPERTY_DEFINITION('pmi validation property','',#694);
#16=VALUE_REPRESENTATION_ITEM('number of annotations',COUNT_MEASURE(0.));
#17=VALUE_REPRESENTATION_ITEM('number of views',COUNT_MEASURE(0.));
#18=SHAPE_REPRESENTATION_RELATIONSHIP('','',#466,#19);
#19=ADVANCED_BREP_SHAPE_REPRESENTATION('',(#464),#689);
#20=CONICAL_SURFACE('',#484,9.35,1.0471975511966);
#21=CONICAL_SURFACE('',#488,5.25,0.139626340159547);
#22=CONICAL_SURFACE('',#491,5.55,1.02974425867665);
#23=CONICAL_SURFACE('',#497,6.25,1.0471975511966);
#24=CONICAL_SURFACE('',#505,9.14999999999998,0.785398163397454);
#25=TOROIDAL_SURFACE('',#480,8.65,0.7);
#26=TOROIDAL_SURFACE('',#490,9.20980884526373,0.8);
#27=TOROIDAL_SURFACE('',#501,7.25,1.);
#28=PLANE('',#477);
#29=PLANE('',#503);
#30=PLANE('',#506);
#31=PLANE('',#507);
#32=PLANE('',#508);
#33=PLANE('',#509);
#34=PLANE('',#510);
#35=PLANE('',#511);
#36=CIRCLE('',#471,10.);
#37=CIRCLE('',#472,9.99999999999998);
#38=CIRCLE('',#476,10.);
#39=CIRCLE('',#478,8.82251051064301);
#40=CIRCLE('',#479,9.);
#41=CIRCLE('',#481,9.35);
#42=CIRCLE('',#483,9.35);
#43=CIRCLE('',#486,5.25);
#44=CIRCLE('',#487,5.25);
#45=CIRCLE('',#489,8.41759439027048);
#46=CIRCLE('',#492,5.55);
#47=CIRCLE('',#494,5.55);
#48=CIRCLE('',#496,5.55);
#49=CIRCLE('',#498,6.25);
#50=CIRCLE('',#500,6.25);
#51=CIRCLE('',#502,7.25);
#52=CIRCLE('',#504,9.14999999999998);
#53=ELLIPSE('',#469,14.1421356237309,10.);
#54=ELLIPSE('',#470,14.1421356237309,10.);
#55=ELLIPSE('',#473,14.1421356237309,10.);
#56=ELLIPSE('',#474,14.1421356237309,10.);
#57=ORIENTED_EDGE('',*,*,#115,.F.);
#58=ORIENTED_EDGE('',*,*,#116,.T.);
#59=ORIENTED_EDGE('',*,*,#117,.T.);
#60=ORIENTED_EDGE('',*,*,#118,.T.);
#61=ORIENTED_EDGE('',*,*,#119,.F.);
#62=ORIENTED_EDGE('',*,*,#120,.T.);
#63=ORIENTED_EDGE('',*,*,#121,.F.);
#64=ORIENTED_EDGE('',*,*,#122,.T.);
#65=ORIENTED_EDGE('',*,*,#123,.F.);
#66=ORIENTED_EDGE('',*,*,#124,.F.);
#67=ORIENTED_EDGE('',*,*,#125,.T.);
#68=ORIENTED_EDGE('',*,*,#119,.T.);
#69=ORIENTED_EDGE('',*,*,#126,.T.);
#70=ORIENTED_EDGE('',*,*,#127,.F.);
#71=ORIENTED_EDGE('',*,*,#128,.F.);
#72=ORIENTED_EDGE('',*,*,#127,.T.);
#73=ORIENTED_EDGE('',*,*,#129,.F.);
#74=ORIENTED_EDGE('',*,*,#128,.T.);
#75=ORIENTED_EDGE('',*,*,#125,.F.);
#76=ORIENTED_EDGE('',*,*,#129,.T.);
#77=ORIENTED_EDGE('',*,*,#130,.F.);
#78=ORIENTED_EDGE('',*,*,#131,.F.);
#79=ORIENTED_EDGE('',*,*,#132,.F.);
#80=ORIENTED_EDGE('',*,*,#130,.T.);
#81=ORIENTED_EDGE('',*,*,#126,.F.);
#82=ORIENTED_EDGE('',*,*,#132,.T.);
#83=ORIENTED_EDGE('',*,*,#131,.T.);
#84=ORIENTED_EDGE('',*,*,#133,.F.);
#85=ORIENTED_EDGE('',*,*,#133,.T.);
#86=ORIENTED_EDGE('',*,*,#134,.T.);
#87=ORIENTED_EDGE('',*,*,#134,.F.);
#88=ORIENTED_EDGE('',*,*,#135,.F.);
#89=ORIENTED_EDGE('',*,*,#135,.T.);
#90=ORIENTED_EDGE('',*,*,#136,.T.);
#91=ORIENTED_EDGE('',*,*,#136,.F.);
#92=ORIENTED_EDGE('',*,*,#137,.T.);
#93=ORIENTED_EDGE('',*,*,#137,.F.);
#94=ORIENTED_EDGE('',*,*,#138,.T.);
#95=ORIENTED_EDGE('',*,*,#139,.T.);
#96=ORIENTED_EDGE('',*,*,#138,.F.);
#97=ORIENTED_EDGE('',*,*,#120,.F.);
#98=ORIENTED_EDGE('',*,*,#139,.F.);
#99=ORIENTED_EDGE('',*,*,#116,.F.);
#100=ORIENTED_EDGE('',*,*,#140,.F.);
#101=ORIENTED_EDGE('',*,*,#140,.T.);
#102=ORIENTED_EDGE('',*,*,#115,.T.);
#103=ORIENTED_EDGE('',*,*,#141,.F.);
#104=ORIENTED_EDGE('',*,*,#117,.F.);
#105=ORIENTED_EDGE('',*,*,#141,.T.);
#106=ORIENTED_EDGE('',*,*,#118,.F.);
#107=ORIENTED_EDGE('',*,*,#121,.T.);
#108=ORIENTED_EDGE('',*,*,#142,.T.);
#109=ORIENTED_EDGE('',*,*,#124,.T.);
#110=ORIENTED_EDGE('',*,*,#143,.T.);
#111=ORIENTED_EDGE('',*,*,#122,.F.);
#112=ORIENTED_EDGE('',*,*,#142,.F.);
#113=ORIENTED_EDGE('',*,*,#123,.T.);
#114=ORIENTED_EDGE('',*,*,#143,.F.);
#115=EDGE_CURVE('',#144,#145,#169,.F.);
#116=EDGE_CURVE('',#144,#146,#53,.T.);
#117=EDGE_CURVE('',#146,#147,#170,.F.);
#118=EDGE_CURVE('',#147,#145,#54,.T.);
#119=EDGE_CURVE('',#148,#148,#36,.T.);
#120=EDGE_CURVE('',#149,#149,#37,.T.);
#121=EDGE_CURVE('',#150,#151,#55,.T.);
#122=EDGE_CURVE('',#150,#152,#171,.F.);
#123=EDGE_CURVE('',#153,#152,#56,.T.);
#124=EDGE_CURVE('',#151,#153,#172,.F.);
#125=EDGE_CURVE('',#154,#154,#38,.T.);
#126=EDGE_CURVE('',#155,#155,#39,.T.);
#127=EDGE_CURVE('',#156,#156,#40,.T.);
#128=EDGE_CURVE('',#157,#157,#41,.T.);
#129=EDGE_CURVE('',#158,#158,#42,.T.);
#130=EDGE_CURVE('',#159,#159,#43,.T.);
#131=EDGE_CURVE('',#160,#160,#44,.F.);
#132=EDGE_CURVE('',#161,#161,#45,.T.);
#133=EDGE_CURVE('',#162,#162,#46,.T.);
#134=EDGE_CURVE('',#163,#163,#47,.T.);
#135=EDGE_CURVE('',#164,#164,#48,.F.);
#136=EDGE_CURVE('',#165,#165,#49,.T.);
#137=EDGE_CURVE('',#166,#166,#50,.T.);
#138=EDGE_CURVE('',#167,#167,#51,.T.);
#139=EDGE_CURVE('',#168,#168,#52,.F.);
#140=EDGE_CURVE('',#146,#144,#173,.T.);
#141=EDGE_CURVE('',#147,#145,#174,.T.);
#142=EDGE_CURVE('',#151,#150,#175,.T.);
#143=EDGE_CURVE('',#153,#152,#176,.T.);
#144=VERTEX_POINT('',#613);
#145=VERTEX_POINT('',#614);
#146=VERTEX_POINT('',#616);
#147=VERTEX_POINT('',#618);
#148=VERTEX_POINT('',#621);
#149=VERTEX_POINT('',#623);
#150=VERTEX_POINT('',#625);
#151=VERTEX_POINT('',#626);
#152=VERTEX_POINT('',#628);
#153=VERTEX_POINT('',#630);
#154=VERTEX_POINT('',#634);
#155=VERTEX_POINT('',#637);
#156=VERTEX_POINT('',#639);
#157=VERTEX_POINT('',#642);
#158=VERTEX_POINT('',#645);
#159=VERTEX_POINT('',#649);
#160=VERTEX_POINT('',#651);
#161=VERTEX_POINT('',#654);
#162=VERTEX_POINT('',#658);
#163=VERTEX_POINT('',#661);
#164=VERTEX_POINT('',#664);
#165=VERTEX_POINT('',#667);
#166=VERTEX_POINT('',#670);
#167=VERTEX_POINT('',#673);
#168=VERTEX_POINT('',#676);
#169=LINE('',#612,#177);
#170=LINE('',#617,#178);
#171=LINE('',#627,#179);
#172=LINE('',#631,#180);
#173=LINE('',#679,#181);
#174=LINE('',#681,#182);
#175=LINE('',#684,#183);
#176=LINE('',#686,#184);
#177=VECTOR('',#516,1000.);
#178=VECTOR('',#519,1000.);
#179=VECTOR('',#528,1000.);
#180=VECTOR('',#531,1000.);
#181=VECTOR('',#596,1000.);
#182=VECTOR('',#599,1000.);
#183=VECTOR('',#604,1000.);
#184=VECTOR('',#607,1000.);
#185=EDGE_LOOP('',(#57,#58,#59,#60));
#186=EDGE_LOOP('',(#61));
#187=EDGE_LOOP('',(#62));
#188=EDGE_LOOP('',(#63,#64,#65,#66));
#189=EDGE_LOOP('',(#67));
#190=EDGE_LOOP('',(#68));
#191=EDGE_LOOP('',(#69));
#192=EDGE_LOOP('',(#70));
#193=EDGE_LOOP('',(#71));
#194=EDGE_LOOP('',(#72));
#195=EDGE_LOOP('',(#73));
#196=EDGE_LOOP('',(#74));
#197=EDGE_LOOP('',(#75));
#198=EDGE_LOOP('',(#76));
#199=EDGE_LOOP('',(#77));
#200=EDGE_LOOP('',(#78));
#201=EDGE_LOOP('',(#79));
#202=EDGE_LOOP('',(#80));
#203=EDGE_LOOP('',(#81));
#204=EDGE_LOOP('',(#82));
#205=EDGE_LOOP('',(#83));
#206=EDGE_LOOP('',(#84));
#207=EDGE_LOOP('',(#85));
#208=EDGE_LOOP('',(#86));
#209=EDGE_LOOP('',(#87));
#210=EDGE_LOOP('',(#88));
#211=EDGE_LOOP('',(#89));
#212=EDGE_LOOP('',(#90));
#213=EDGE_LOOP('',(#91));
#214=EDGE_LOOP('',(#92));
#215=EDGE_LOOP('',(#93));
#216=EDGE_LOOP('',(#94));
#217=EDGE_LOOP('',(#95));
#218=EDGE_LOOP('',(#96));
#219=EDGE_LOOP('',(#97));
#220=EDGE_LOOP('',(#98));
#221=EDGE_LOOP('',(#99,#100));
#222=EDGE_LOOP('',(#101,#102,#103,#104));
#223=EDGE_LOOP('',(#105,#106));
#224=EDGE_LOOP('',(#107,#108));
#225=EDGE_LOOP('',(#109,#110,#111,#112));
#226=EDGE_LOOP('',(#113,#114));
#227=FACE_BOUND('',#185,.T.);
#228=FACE_BOUND('',#186,.T.);
#229=FACE_BOUND('',#187,.T.);
#230=FACE_BOUND('',#188,.T.);
#231=FACE_BOUND('',#189,.T.);
#232=FACE_BOUND('',#190,.T.);
#233=FACE_BOUND('',#191,.T.);
#234=FACE_BOUND('',#192,.T.);
#235=FACE_BOUND('',#193,.T.);
#236=FACE_BOUND('',#194,.T.);
#237=FACE_BOUND('',#195,.T.);
#238=FACE_BOUND('',#196,.T.);
#239=FACE_BOUND('',#197,.T.);
#240=FACE_BOUND('',#198,.T.);
#241=FACE_BOUND('',#199,.T.);
#242=FACE_BOUND('',#200,.T.);
#243=FACE_BOUND('',#201,.T.);
#244=FACE_BOUND('',#202,.T.);
#245=FACE_BOUND('',#203,.T.);
#246=FACE_BOUND('',#204,.T.);
#247=FACE_BOUND('',#205,.T.);
#248=FACE_BOUND('',#206,.T.);
#249=FACE_BOUND('',#207,.T.);
#250=FACE_BOUND('',#208,.T.);
#251=FACE_BOUND('',#209,.T.);
#252=FACE_BOUND('',#210,.T.);
#253=FACE_BOUND('',#211,.T.);
#254=FACE_BOUND('',#212,.T.);
#255=FACE_BOUND('',#213,.T.);
#256=FACE_BOUND('',#214,.T.);
#257=FACE_BOUND('',#215,.T.);
#258=FACE_BOUND('',#216,.T.);
#259=FACE_BOUND('',#217,.T.);
#260=FACE_BOUND('',#218,.T.);
#261=FACE_BOUND('',#219,.T.);
#262=FACE_BOUND('',#220,.T.);
#263=FACE_BOUND('',#221,.T.);
#264=FACE_BOUND('',#222,.T.);
#265=FACE_BOUND('',#223,.T.);
#266=FACE_BOUND('',#224,.T.);
#267=FACE_BOUND('',#225,.T.);
#268=FACE_BOUND('',#226,.T.);
#269=CYLINDRICAL_SURFACE('',#468,10.);
#270=CYLINDRICAL_SURFACE('',#475,10.);
#271=CYLINDRICAL_SURFACE('',#482,9.35);
#272=CYLINDRICAL_SURFACE('',#485,5.25);
#273=CYLINDRICAL_SURFACE('',#493,5.55);
#274=CYLINDRICAL_SURFACE('',#495,5.55);
#275=CYLINDRICAL_SURFACE('',#499,6.25);
#276=STYLED_ITEM('',(#299),#440);
#277=STYLED_ITEM('',(#300),#441);
#278=STYLED_ITEM('',(#301),#442);
#279=STYLED_ITEM('',(#302),#443);
#280=STYLED_ITEM('',(#303),#444);
#281=STYLED_ITEM('',(#304),#445);
#282=STYLED_ITEM('',(#305),#446);
#283=STYLED_ITEM('',(#306),#447);
#284=STYLED_ITEM('',(#307),#448);
#285=STYLED_ITEM('',(#308),#449);
#286=STYLED_ITEM('',(#309),#450);
#287=STYLED_ITEM('',(#310),#451);
#288=STYLED_ITEM('',(#311),#452);
#289=STYLED_ITEM('',(#312),#453);
#290=STYLED_ITEM('',(#313),#454);
#291=STYLED_ITEM('',(#314),#455);
#292=STYLED_ITEM('',(#315),#456);
#293=STYLED_ITEM('',(#316),#457);
#294=STYLED_ITEM('',(#317),#458);
#295=STYLED_ITEM('',(#318),#459);
#296=STYLED_ITEM('',(#319),#460);
#297=STYLED_ITEM('',(#320),#461);
#298=STYLED_ITEM('',(#321),#462);
#299=PRESENTATION_STYLE_ASSIGNMENT((#322));
#300=PRESENTATION_STYLE_ASSIGNMENT((#323));
#301=PRESENTATION_STYLE_ASSIGNMENT((#324));
#302=PRESENTATION_STYLE_ASSIGNMENT((#325));
#303=PRESENTATION_STYLE_ASSIGNMENT((#326));
#304=PRESENTATION_STYLE_ASSIGNMENT((#327));
#305=PRESENTATION_STYLE_ASSIGNMENT((#328));
#306=PRESENTATION_STYLE_ASSIGNMENT((#329));
#307=PRESENTATION_STYLE_ASSIGNMENT((#330));
#308=PRESENTATION_STYLE_ASSIGNMENT((#331));
#309=PRESENTATION_STYLE_ASSIGNMENT((#332));
#310=PRESENTATION_STYLE_ASSIGNMENT((#333));
#311=PRESENTATION_STYLE_ASSIGNMENT((#334));
#312=PRESENTATION_STYLE_ASSIGNMENT((#335));
#313=PRESENTATION_STYLE_ASSIGNMENT((#336));
#314=PRESENTATION_STYLE_ASSIGNMENT((#337));
#315=PRESENTATION_STYLE_ASSIGNMENT((#338));
#316=PRESENTATION_STYLE_ASSIGNMENT((#339));
#317=PRESENTATION_STYLE_ASSIGNMENT((#340));
#318=PRESENTATION_STYLE_ASSIGNMENT((#341));
#319=PRESENTATION_STYLE_ASSIGNMENT((#342));
#320=PRESENTATION_STYLE_ASSIGNMENT((#343));
#321=PRESENTATION_STYLE_ASSIGNMENT((#344));
#322=SURFACE_STYLE_USAGE(.BOTH.,#345);
#323=SURFACE_STYLE_USAGE(.BOTH.,#346);
#324=SURFACE_STYLE_USAGE(.BOTH.,#347);
#325=SURFACE_STYLE_USAGE(.BOTH.,#348);
#326=SURFACE_STYLE_USAGE(.BOTH.,#349);
#327=SURFACE_STYLE_USAGE(.BOTH.,#350);
#328=SURFACE_STYLE_USAGE(.BOTH.,#351);
#329=SURFACE_STYLE_USAGE(.BOTH.,#352);
#330=SURFACE_STYLE_USAGE(.BOTH.,#353);
#331=SURFACE_STYLE_USAGE(.BOTH.,#354);
#332=SURFACE_STYLE_USAGE(.BOTH.,#355);
#333=SURFACE_STYLE_USAGE(.BOTH.,#356);
#334=SURFACE_STYLE_USAGE(.BOTH.,#357);
#335=SURFACE_STYLE_USAGE(.BOTH.,#358);
#336=SURFACE_STYLE_USAGE(.BOTH.,#359);
#337=SURFACE_STYLE_USAGE(.BOTH.,#360);
#338=SURFACE_STYLE_USAGE(.BOTH.,#361);
#339=SURFACE_STYLE_USAGE(.BOTH.,#362);
#340=SURFACE_STYLE_USAGE(.BOTH.,#363);
#341=SURFACE_STYLE_USAGE(.BOTH.,#364);
#342=SURFACE_STYLE_USAGE(.BOTH.,#365);
#343=SURFACE_STYLE_USAGE(.BOTH.,#366);
#344=SURFACE_STYLE_USAGE(.BOTH.,#367);
#345=SURFACE_SIDE_STYLE('',(#368));
#346=SURFACE_SIDE_STYLE('',(#369));
#347=SURFACE_SIDE_STYLE('',(#370));
#348=SURFACE_SIDE_STYLE('',(#371));
#349=SURFACE_SIDE_STYLE('',(#372));
#350=SURFACE_SIDE_STYLE('',(#373));
#351=SURFACE_SIDE_STYLE('',(#374));
#352=SURFACE_SIDE_STYLE('',(#375));
#353=SURFACE_SIDE_STYLE('',(#376));
#354=SURFACE_SIDE_STYLE('',(#377));
#355=SURFACE_SIDE_STYLE('',(#378));
#356=SURFACE_SIDE_STYLE('',(#379));
#357=SURFACE_SIDE_STYLE('',(#380));
#358=SURFACE_SIDE_STYLE('',(#381));
#359=SURFACE_SIDE_STYLE('',(#382));
#360=SURFACE_SIDE_STYLE('',(#383));
#361=SURFACE_SIDE_STYLE('',(#384));
#362=SURFACE_SIDE_STYLE('',(#385));
#363=SURFACE_SIDE_STYLE('',(#386));
#364=SURFACE_SIDE_STYLE('',(#387));
#365=SURFACE_SIDE_STYLE('',(#388));
#366=SURFACE_SIDE_STYLE('',(#389));
#367=SURFACE_SIDE_STYLE('',(#390));
#368=SURFACE_STYLE_FILL_AREA(#391);
#369=SURFACE_STYLE_FILL_AREA(#392);
#370=SURFACE_STYLE_FILL_AREA(#393);
#371=SURFACE_STYLE_FILL_AREA(#394);
#372=SURFACE_STYLE_FILL_AREA(#395);
#373=SURFACE_STYLE_FILL_AREA(#396);
#374=SURFACE_STYLE_FILL_AREA(#397);
#375=SURFACE_STYLE_FILL_AREA(#398);
#376=SURFACE_STYLE_FILL_AREA(#399);
#377=SURFACE_STYLE_FILL_AREA(#400);
#378=SURFACE_STYLE_FILL_AREA(#401);
#379=SURFACE_STYLE_FILL_AREA(#402);
#380=SURFACE_STYLE_FILL_AREA(#403);
#381=SURFACE_STYLE_FILL_AREA(#404);
#382=SURFACE_STYLE_FILL_AREA(#405);
#383=SURFACE_STYLE_FILL_AREA(#406);
#384=SURFACE_STYLE_FILL_AREA(#407);
#385=SURFACE_STYLE_FILL_AREA(#408);
#386=SURFACE_STYLE_FILL_AREA(#409);
#387=SURFACE_STYLE_FILL_AREA(#410);
#388=SURFACE_STYLE_FILL_AREA(#411);
#389=SURFACE_STYLE_FILL_AREA(#412);
#390=SURFACE_STYLE_FILL_AREA(#413);
#391=FILL_AREA_STYLE('',(#414));
#392=FILL_AREA_STYLE('',(#415));
#393=FILL_AREA_STYLE('',(#416));
#394=FILL_AREA_STYLE('',(#417));
#395=FILL_AREA_STYLE('',(#418));
#396=FILL_AREA_STYLE('',(#419));
#397=FILL_AREA_STYLE('',(#420));
#398=FILL_AREA_STYLE('',(#421));
#399=FILL_AREA_STYLE('',(#422));
#400=FILL_AREA_STYLE('',(#423));
#401=FILL_AREA_STYLE('',(#424));
#402=FILL_AREA_STYLE('',(#425));
#403=FILL_AREA_STYLE('',(#426));
#404=FILL_AREA_STYLE('',(#427));
#405=FILL_AREA_STYLE('',(#428));
#406=FILL_AREA_STYLE('',(#429));
#407=FILL_AREA_STYLE('',(#430));
#408=FILL_AREA_STYLE('',(#431));
#409=FILL_AREA_STYLE('',(#432));
#410=FILL_AREA_STYLE('',(#433));
#411=FILL_AREA_STYLE('',(#434));
#412=FILL_AREA_STYLE('',(#435));
#413=FILL_AREA_STYLE('',(#436));
#414=FILL_AREA_STYLE_COLOUR('',#437);
#415=FILL_AREA_STYLE_COLOUR('',#438);
#416=FILL_AREA_STYLE_COLOUR('',#439);
#417=FILL_AREA_STYLE_COLOUR('',#439);
#418=FILL_AREA_STYLE_COLOUR('',#439);
#419=FILL_AREA_STYLE_COLOUR('',#439);
#420=FILL_AREA_STYLE_COLOUR('',#437);
#421=FILL_AREA_STYLE_COLOUR('',#439);
#422=FILL_AREA_STYLE_COLOUR('',#439);
#423=FILL_AREA_STYLE_COLOUR('',#437);
#424=FILL_AREA_STYLE_COLOUR('',#437);
#425=FILL_AREA_STYLE_COLOUR('',#438);
#426=FILL_AREA_STYLE_COLOUR('',#437);
#427=FILL_AREA_STYLE_COLOUR('',#437);
#428=FILL_AREA_STYLE_COLOUR('',#437);
#429=FILL_AREA_STYLE_COLOUR('',#437);
#430=FILL_AREA_STYLE_COLOUR('',#437);
#431=FILL_AREA_STYLE_COLOUR('',#437);
#432=FILL_AREA_STYLE_COLOUR('',#437);
#433=FILL_AREA_STYLE_COLOUR('',#437);
#434=FILL_AREA_STYLE_COLOUR('',#437);
#435=FILL_AREA_STYLE_COLOUR('',#437);
#436=FILL_AREA_STYLE_COLOUR('',#437);
#437=COLOUR_RGB( ' ', 0.5, 0.5, 0.5 );
#438=COLOUR_RGB( ' ', 0.5, 0.5, 0.5 );
#439=COLOUR_RGB( ' ', 0.5, 0.5, 0.5 );
#440=ADVANCED_FACE('',(#227,#228,#229,#230),#269,.T.);
#441=ADVANCED_FACE('',(#231,#232),#270,.T.);
#442=ADVANCED_FACE('',(#233,#234),#28,.F.);
#443=ADVANCED_FACE('',(#235,#236),#25,.T.);
#444=ADVANCED_FACE('',(#237,#238),#271,.T.);
#445=ADVANCED_FACE('',(#239,#240),#20,.T.);
#446=ADVANCED_FACE('',(#241,#242),#272,.F.);
#447=ADVANCED_FACE('',(#243,#244),#21,.F.);
#448=ADVANCED_FACE('',(#245,#246),#26,.T.);
#449=ADVANCED_FACE('',(#247,#248),#22,.F.);
#450=ADVANCED_FACE('',(#249,#250),#273,.F.);
#451=ADVANCED_FACE('',(#251,#252),#274,.F.);
#452=ADVANCED_FACE('',(#253,#254),#23,.F.);
#453=ADVANCED_FACE('',(#255,#256),#275,.F.);
#454=ADVANCED_FACE('',(#257,#258),#27,.T.);
#455=ADVANCED_FACE('',(#259,#260),#29,.F.);
#456=ADVANCED_FACE('',(#261,#262),#24,.T.);
#457=ADVANCED_FACE('',(#263),#30,.F.);
#458=ADVANCED_FACE('',(#264),#31,.F.);
#459=ADVANCED_FACE('',(#265),#32,.F.);
#460=ADVANCED_FACE('',(#266),#33,.T.);
#461=ADVANCED_FACE('',(#267),#34,.T.);
#462=ADVANCED_FACE('',(#268),#35,.T.);
#463=CLOSED_SHELL('',(#440,#441,#442,#443,#444,#445,#446,#447,#448,#449,
#450,#451,#452,#453,#454,#455,#456,#457,#458,#459,#460,#461,#462));
#464=MANIFOLD_SOLID_BREP('NOCUT',#463);
#465=SHAPE_DEFINITION_REPRESENTATION(#694,#466);
#466=SHAPE_REPRESENTATION('0007681',(#467),#689);
#467=AXIS2_PLACEMENT_3D('',#610,#512,#513);
#468=AXIS2_PLACEMENT_3D('',#611,#514,#515);
#469=AXIS2_PLACEMENT_3D('',#615,#517,#518);
#470=AXIS2_PLACEMENT_3D('',#619,#520,#521);
#471=AXIS2_PLACEMENT_3D('',#620,#522,#523);
#472=AXIS2_PLACEMENT_3D('',#622,#524,#525);
#473=AXIS2_PLACEMENT_3D('',#624,#526,#527);
#474=AXIS2_PLACEMENT_3D('',#629,#529,#530);
#475=AXIS2_PLACEMENT_3D('',#632,#532,#533);
#476=AXIS2_PLACEMENT_3D('',#633,#534,#535);
#477=AXIS2_PLACEMENT_3D('',#635,#536,#537);
#478=AXIS2_PLACEMENT_3D('',#636,#538,#539);
#479=AXIS2_PLACEMENT_3D('',#638,#540,#541);
#480=AXIS2_PLACEMENT_3D('',#640,#542,#543);
#481=AXIS2_PLACEMENT_3D('',#641,#544,#545);
#482=AXIS2_PLACEMENT_3D('',#643,#546,#547);
#483=AXIS2_PLACEMENT_3D('',#644,#548,#549);
#484=AXIS2_PLACEMENT_3D('',#646,#550,#551);
#485=AXIS2_PLACEMENT_3D('',#647,#552,#553);
#486=AXIS2_PLACEMENT_3D('',#648,#554,#555);
#487=AXIS2_PLACEMENT_3D('',#650,#556,#557);
#488=AXIS2_PLACEMENT_3D('',#652,#558,#559);
#489=AXIS2_PLACEMENT_3D('',#653,#560,#561);
#490=AXIS2_PLACEMENT_3D('',#655,#562,#563);
#491=AXIS2_PLACEMENT_3D('',#656,#564,#565);
#492=AXIS2_PLACEMENT_3D('',#657,#566,#567);
#493=AXIS2_PLACEMENT_3D('',#659,#568,#569);
#494=AXIS2_PLACEMENT_3D('',#660,#570,#571);
#495=AXIS2_PLACEMENT_3D('',#662,#572,#573);
#496=AXIS2_PLACEMENT_3D('',#663,#574,#575);
#497=AXIS2_PLACEMENT_3D('',#665,#576,#577);
#498=AXIS2_PLACEMENT_3D('',#666,#578,#579);
#499=AXIS2_PLACEMENT_3D('',#668,#580,#581);
#500=AXIS2_PLACEMENT_3D('',#669,#582,#583);
#501=AXIS2_PLACEMENT_3D('',#671,#584,#585);
#502=AXIS2_PLACEMENT_3D('',#672,#586,#587);
#503=AXIS2_PLACEMENT_3D('',#674,#588,#589);
#504=AXIS2_PLACEMENT_3D('',#675,#590,#591);
#505=AXIS2_PLACEMENT_3D('',#677,#592,#593);
#506=AXIS2_PLACEMENT_3D('',#678,#594,#595);
#507=AXIS2_PLACEMENT_3D('',#680,#597,#598);
#508=AXIS2_PLACEMENT_3D('',#682,#600,#601);
#509=AXIS2_PLACEMENT_3D('',#683,#602,#603);
#510=AXIS2_PLACEMENT_3D('',#685,#605,#606);
#511=AXIS2_PLACEMENT_3D('',#687,#608,#609);
#512=DIRECTION('',(0.,0.,1.));
#513=DIRECTION('',(1.,0.,0.));
#514=DIRECTION('',(0.,0.,1.));
#515=DIRECTION('',(1.,0.,0.));
#516=DIRECTION('',(0.,0.,1.));
#517=DIRECTION('',(0.,0.707106781186548,0.707106781186548));
#518=DIRECTION('',(0.,-0.707106781186548,0.707106781186548));
#519=DIRECTION('',(0.,0.,1.));
#520=DIRECTION('',(0.,0.707106781186547,-0.707106781186548));
#521=DIRECTION('',(0.,0.707106781186548,0.707106781186547));
#522=DIRECTION('',(0.,0.,-1.));
#523=DIRECTION('',(1.,0.,0.));
#524=DIRECTION('',(0.,0.,-1.));
#525=DIRECTION('',(-1.,0.,0.));
#526=DIRECTION('',(0.,0.707106781186548,-0.707106781186548));
#527=DIRECTION('',(0.,0.707106781186548,0.707106781186548));
#528=DIRECTION('',(0.,0.,1.));
#529=DIRECTION('',(0.,0.707106781186547,0.707106781186548));
#530=DIRECTION('',(0.,-0.707106781186548,0.707106781186547));
#531=DIRECTION('',(0.,0.,1.));
#532=DIRECTION('',(0.,0.,1.));
#533=DIRECTION('',(1.,0.,0.));
#534=DIRECTION('',(0.,0.,1.));
#535=DIRECTION('',(1.,0.,0.));
#536=DIRECTION('',(0.,0.,1.));
#537=DIRECTION('',(1.,0.,0.));
#538=DIRECTION('',(0.,0.,1.));
#539=DIRECTION('',(1.,0.,0.));
#540=DIRECTION('',(0.,0.,1.));
#541=DIRECTION('',(1.,0.,0.));
#542=DIRECTION('',(0.,0.,1.));
#543=DIRECTION('',(1.,0.,0.));
#544=DIRECTION('',(0.,0.,1.));
#545=DIRECTION('',(1.,0.,0.));
#546=DIRECTION('',(0.,0.,1.));
#547=DIRECTION('',(1.,0.,0.));
#548=DIRECTION('',(0.,0.,1.));
#549=DIRECTION('',(1.,0.,0.));
#550=DIRECTION('',(0.,0.,1.));
#551=DIRECTION('',(1.,0.,0.));
#552=DIRECTION('',(0.,0.,1.));
#553=DIRECTION('',(1.,0.,0.));
#554=DIRECTION('',(0.,0.,1.));
#555=DIRECTION('',(1.,0.,0.));
#556=DIRECTION('',(0.,0.,1.));
#557=DIRECTION('',(1.,0.,0.));
#558=DIRECTION('',(0.,0.,-1.));
#559=DIRECTION('',(-1.,0.,0.));
#560=DIRECTION('',(0.,0.,1.));
#561=DIRECTION('',(1.,0.,0.));
#562=DIRECTION('',(0.,0.,1.));
#563=DIRECTION('',(1.,0.,0.));
#564=DIRECTION('',(0.,0.,1.));
#565=DIRECTION('',(-1.,0.,0.));
#566=DIRECTION('',(0.,0.,-1.));
#567=DIRECTION('',(-1.,0.,0.));
#568=DIRECTION('',(0.,0.,-1.));
#569=DIRECTION('',(1.,0.,0.));
#570=DIRECTION('',(0.,0.,1.));
#571=DIRECTION('',(1.,0.,0.));
#572=DIRECTION('',(0.,0.,-1.));
#573=DIRECTION('',(1.,0.,0.));
#574=DIRECTION('',(0.,0.,1.));
#575=DIRECTION('',(1.,0.,0.));
#576=DIRECTION('',(0.,0.,1.));
#577=DIRECTION('',(1.,0.,0.));
#578=DIRECTION('',(0.,0.,1.));
#579=DIRECTION('',(1.,0.,0.));
#580=DIRECTION('',(0.,0.,1.));
#581=DIRECTION('',(1.,0.,0.));
#582=DIRECTION('',(0.,0.,1.));
#583=DIRECTION('',(1.,0.,0.));
#584=DIRECTION('',(0.,0.,1.));
#585=DIRECTION('',(1.,0.,0.));
#586=DIRECTION('',(0.,0.,1.));
#587=DIRECTION('',(1.,0.,0.));
#588=DIRECTION('',(0.,0.,-1.));
#589=DIRECTION('',(-1.,0.,0.));
#590=DIRECTION('',(0.,0.,-1.));
#591=DIRECTION('',(-1.,0.,0.));
#592=DIRECTION('',(0.,0.,-1.));
#593=DIRECTION('',(-1.,0.,0.));
#594=DIRECTION('',(0.,0.707106781186548,0.707106781186548));
#595=DIRECTION('',(0.,-0.707106781186548,0.707106781186548));
#596=DIRECTION('',(-1.,0.,0.));
#597=DIRECTION('',(0.,1.,0.));
#598=DIRECTION('',(1.,0.,0.));
#599=DIRECTION('',(-1.,0.,0.));
#600=DIRECTION('',(0.,0.707106781186547,-0.707106781186548));
#601=DIRECTION('',(0.,0.707106781186548,0.707106781186547));
#602=DIRECTION('',(0.,0.707106781186548,-0.707106781186548));
#603=DIRECTION('',(0.,0.707106781186548,0.707106781186548));
#604=DIRECTION('',(-1.,0.,0.));
#605=DIRECTION('',(0.,1.,0.));
#606=DIRECTION('',(1.,0.,0.));
#607=DIRECTION('',(-1.,0.,0.));
#608=DIRECTION('',(0.,0.707106781186547,0.707106781186548));
#609=DIRECTION('',(0.,-0.707106781186548,0.707106781186547));
#610=CARTESIAN_POINT('',(0.,0.,0.));
#611=CARTESIAN_POINT('',(0.,0.,62.));
#612=CARTESIAN_POINT('',(-5.26782687642636,-8.5,62.));
#613=CARTESIAN_POINT('',(-5.26782687642635,-8.5,34.7));
#614=CARTESIAN_POINT('',(-5.26782687642635,-8.5,28.7));
#615=CARTESIAN_POINT('',(0.,0.,26.2));
#616=CARTESIAN_POINT('',(5.26782687642636,-8.5,34.7));
#617=CARTESIAN_POINT('',(5.26782687642636,-8.5,62.));
#618=CARTESIAN_POINT('',(5.26782687642635,-8.5,28.7));
#619=CARTESIAN_POINT('',(0.,0.,37.2));
#620=CARTESIAN_POINT('',(0.,0.,23.2752776749732));
#621=CARTESIAN_POINT('',(10.,0.,23.2752776749732));
#622=CARTESIAN_POINT('',(0.,0.,174.35));
#623=CARTESIAN_POINT('',(-9.99999999999998,0.,174.35));
#624=CARTESIAN_POINT('',(0.,0.,26.2));
#625=CARTESIAN_POINT('',(-5.26782687642636,8.5,34.7));
#626=CARTESIAN_POINT('',(5.26782687642635,8.5,34.7));
#627=CARTESIAN_POINT('',(-5.26782687642636,8.5,62.));
#628=CARTESIAN_POINT('',(-5.26782687642635,8.5,28.7));
#629=CARTESIAN_POINT('',(0.,0.,37.2));
#630=CARTESIAN_POINT('',(5.26782687642635,8.5,28.7));
#631=CARTESIAN_POINT('',(5.26782687642636,8.5,62.));
#632=CARTESIAN_POINT('',(0.,0.,62.));
#633=CARTESIAN_POINT('',(0.,0.,10.0752776749733));
#634=CARTESIAN_POINT('',(10.,0.,10.0752776749733));
#635=CARTESIAN_POINT('',(0.,0.,6.7));
#636=CARTESIAN_POINT('',(0.,0.,6.70000000000002));
#637=CARTESIAN_POINT('',(8.82251051064301,0.,6.70000000000002));
#638=CARTESIAN_POINT('',(0.,0.,6.7));
#639=CARTESIAN_POINT('',(9.,0.,6.7));
#640=CARTESIAN_POINT('',(0.,0.,7.3062177826491));
#641=CARTESIAN_POINT('',(0.,0.,7.3062177826491));
#642=CARTESIAN_POINT('',(9.35,0.,7.3062177826491));
#643=CARTESIAN_POINT('',(0.,0.,62.));
#644=CARTESIAN_POINT('',(0.,0.,9.69999999999999));
#645=CARTESIAN_POINT('',(9.35,0.,9.69999999999999));
#646=CARTESIAN_POINT('',(0.,0.,9.69999999999999));
#647=CARTESIAN_POINT('',(0.,0.,46.1961524227066));
#648=CARTESIAN_POINT('',(0.,0.,29.8272667365565));
#649=CARTESIAN_POINT('',(5.25,0.,29.8272667365565));
#650=CARTESIAN_POINT('',(3.46944695195361E-15,0.,90.0197418142917));
#651=CARTESIAN_POINT('',(5.25,0.,90.0197418142917));
#652=CARTESIAN_POINT('',(0.,0.,29.8272667365565));
#653=CARTESIAN_POINT('',(0.,0.,7.28866151923197));
#654=CARTESIAN_POINT('',(8.41759439027048,0.,7.28866151923197));
#655=CARTESIAN_POINT('',(0.,0.,7.40000000000002));
#656=CARTESIAN_POINT('',(3.46944695195361E-15,0.,90.2));
#657=CARTESIAN_POINT('',(3.46944695195361E-15,0.,90.2));
#658=CARTESIAN_POINT('',(-5.55,0.,90.2));
#659=CARTESIAN_POINT('',(3.46944695195361E-15,0.,175.2));
#660=CARTESIAN_POINT('',(3.46944695195361E-15,0.,150.2));
#661=CARTESIAN_POINT('',(5.55,0.,150.2));
#662=CARTESIAN_POINT('',(3.46944695195361E-15,0.,175.2));
#663=CARTESIAN_POINT('',(0.,0.,169.795854811567));
#664=CARTESIAN_POINT('',(5.55,0.,169.795854811567));
#665=CARTESIAN_POINT('',(0.,0.,170.2));
#666=CARTESIAN_POINT('',(0.,0.,170.2));
#667=CARTESIAN_POINT('',(6.25,0.,170.2));
#668=CARTESIAN_POINT('',(0.,0.,235.2));
#669=CARTESIAN_POINT('',(0.,0.,174.2));
#670=CARTESIAN_POINT('',(6.25,0.,174.2));
#671=CARTESIAN_POINT('',(0.,0.,174.2));
#672=CARTESIAN_POINT('',(0.,0.,175.2));
#673=CARTESIAN_POINT('',(7.25,0.,175.2));
#674=CARTESIAN_POINT('',(9.99999999999998,0.,175.2));
#675=CARTESIAN_POINT('',(0.,0.,175.2));
#676=CARTESIAN_POINT('',(-9.14999999999998,0.,175.2));
#677=CARTESIAN_POINT('',(0.,0.,175.2));
#678=CARTESIAN_POINT('',(170.857396679219,-10.,36.2));
#679=CARTESIAN_POINT('',(170.857396679219,-8.5,34.7));
#680=CARTESIAN_POINT('',(170.857396679219,-8.5,34.7));
#681=CARTESIAN_POINT('',(170.857396679219,-8.5,28.7));
#682=CARTESIAN_POINT('',(170.857396679219,-8.5,28.7));
#683=CARTESIAN_POINT('',(170.857396679219,10.,36.2));
#684=CARTESIAN_POINT('',(170.857396679219,8.5,34.7));
#685=CARTESIAN_POINT('',(170.857396679219,8.5,34.7));
#686=CARTESIAN_POINT('',(170.857396679219,8.5,28.7));
#687=CARTESIAN_POINT('',(170.857396679219,8.5,28.7));
#688=MECHANICAL_DESIGN_GEOMETRIC_PRESENTATION_REPRESENTATION('',(#276,#277,
#278,#279,#280,#281,#282,#283,#284,#285,#286,#287,#288,#289,#290,#291,#292,
#293,#294,#295,#296,#297,#298),#689);
#689=(
GEOMETRIC_REPRESENTATION_CONTEXT(3)
GLOBAL_UNCERTAINTY_ASSIGNED_CONTEXT((#690))
GLOBAL_UNIT_ASSIGNED_CONTEXT((#693,#692,#691))
REPRESENTATION_CONTEXT('0007681','TOP_LEVEL_ASSEMBLY_PART')
);
#690=UNCERTAINTY_MEASURE_WITH_UNIT(LENGTH_MEASURE(0.005),#693,
'DISTANCE_ACCURACY_VALUE','Maximum Tolerance applied to model');
#691=(
NAMED_UNIT(*)
SI_UNIT($,.STERADIAN.)
SOLID_ANGLE_UNIT()
);
#692=(
NAMED_UNIT(*)
PLANE_ANGLE_UNIT()
SI_UNIT($,.RADIAN.)
);
#693=(
LENGTH_UNIT()
NAMED_UNIT(*)
SI_UNIT(.MILLI.,.METRE.)
);
#694=PRODUCT_DEFINITION_SHAPE('','',#695);
#695=PRODUCT_DEFINITION('','',#697,#696);
#696=PRODUCT_DEFINITION_CONTEXT('',#703,'design');
#697=PRODUCT_DEFINITION_FORMATION_WITH_SPECIFIED_SOURCE('','',#699,
 .NOT_KNOWN.);
#698=PRODUCT_RELATED_PRODUCT_CATEGORY('','',(#699));
#699=PRODUCT('0007681','0007681','0007681',(#701));
#700=PRODUCT_CATEGORY('','');
#701=PRODUCT_CONTEXT('',#703,'mechanical');
#702=APPLICATION_PROTOCOL_DEFINITION('international standard',
'automotive_design',2010,#703);
#703=APPLICATION_CONTEXT(
'core data for automotive mechanical design processes');
#704=AXIS2_PLACEMENT_3D('PCS',#705,#706,#707);
#705=CARTESIAN_POINT('',(0.,0.,25.2));
#706=DIRECTION('',(0.,0.,1.));
#707=DIRECTION('',(1.,0.,0.));
#708=AXIS2_PLACEMENT_3D('MCS',#709,#710,#711);
#709=CARTESIAN_POINT('',(0.,0.,25.2));
#710=DIRECTION('',(0.,0.,1.));
#711=DIRECTION('',(1.,0.,0.));
#712=AXIS2_PLACEMENT_3D('CSW',#713,#714,#715);
#713=CARTESIAN_POINT('',(0.,0.,6.7));
#714=DIRECTION('',(0.,0.,1.));
#715=DIRECTION('',(1.,0.,0.));
#716=CONSTRUCTIVE_GEOMETRY_REPRESENTATION_RELATIONSHIP('coordinate systems',$,#19,#717);
#717=CONSTRUCTIVE_GEOMETRY_REPRESENTATION('coordinate systems',(#704, #708, #712),#689);
ENDSEC;
END-ISO-10303-21;

