ISO-10303-21;
HEADER;
FILE_DESCRIPTION(
/* description */ (''),
/* implementation_level */ '2;1');
FILE_NAME(
/* name */ '755040000.stp',
/* time_stamp */ '2021-09-08T12:22:47',
/* author */ ('LRA'),
/* organization */ ('REGO-FIX'),
/* preprocessor_version */ ' Unknown',
/* originating_system */ 'SIEMENS PLM Software Solid Edge ST10',
/* authorization */ 'Unknown');
FILE_SCHEMA (('AUTOMOTIVE_DESIGN { 1 0 10303 214 2 1 1}'));
ENDSEC;
DATA;
#10=PROPERTY_DEFINITION_REPRESENTATION(#14,#12);
#11=PROPERTY_DEFINITION_REPRESENTATION(#15,#13);
#12=REPRESENTATION('',(#16),#673);
#13=REPRESENTATION('',(#17),#673);
#14=PROPERTY_DEFINITION('pmi validation property','',#678);
#15=PROPERTY_DEFINITION('pmi validation property','',#678);
#16=VALUE_REPRESENTATION_ITEM('number of annotations',COUNT_MEASURE(0.));
#17=VALUE_REPRESENTATION_ITEM('number of views',COUNT_MEASURE(0.));
#18=SHAPE_REPRESENTATION_RELATIONSHIP('','',#454,#19);
#19=ADVANCED_BREP_SHAPE_REPRESENTATION('',(#452),#673);
#20=VERTEX_LOOP('',#117);
#21=VERTEX_LOOP('',#127);
#22=PLANE('',#464);
#23=PLANE('',#481);
#24=PLANE('',#487);
#25=PLANE('',#494);
#26=CYLINDRICAL_SURFACE('',#462,23.);
#27=CYLINDRICAL_SURFACE('',#467,19.7);
#28=CYLINDRICAL_SURFACE('',#477,6.9175);
#29=CYLINDRICAL_SURFACE('',#483,8.5);
#30=CYLINDRICAL_SURFACE('',#490,20.);
#31=CYLINDRICAL_SURFACE('',#498,12.5);
#32=TOROIDAL_SURFACE('',#459,24.5,2.5);
#33=TOROIDAL_SURFACE('',#470,20.1,0.4);
#34=TOROIDAL_SURFACE('',#471,20.1,0.4);
#35=TOROIDAL_SURFACE('',#485,9.5,0.999999999999999);
#36=TOROIDAL_SURFACE('',#489,11.4577134988968,1.);
#37=ORIENTED_EDGE('',*,*,#83,.T.);
#38=ORIENTED_EDGE('',*,*,#84,.T.);
#39=ORIENTED_EDGE('',*,*,#85,.F.);
#40=ORIENTED_EDGE('',*,*,#86,.F.);
#41=ORIENTED_EDGE('',*,*,#85,.T.);
#42=ORIENTED_EDGE('',*,*,#87,.T.);
#43=ORIENTED_EDGE('',*,*,#88,.T.);
#44=ORIENTED_EDGE('',*,*,#89,.T.);
#45=ORIENTED_EDGE('',*,*,#90,.T.);
#46=ORIENTED_EDGE('',*,*,#91,.T.);
#47=ORIENTED_EDGE('',*,*,#83,.F.);
#48=ORIENTED_EDGE('',*,*,#91,.F.);
#49=ORIENTED_EDGE('',*,*,#90,.F.);
#50=ORIENTED_EDGE('',*,*,#89,.F.);
#51=ORIENTED_EDGE('',*,*,#88,.F.);
#52=ORIENTED_EDGE('',*,*,#87,.F.);
#53=ORIENTED_EDGE('',*,*,#92,.F.);
#54=ORIENTED_EDGE('',*,*,#86,.T.);
#55=ORIENTED_EDGE('',*,*,#93,.F.);
#56=ORIENTED_EDGE('',*,*,#94,.T.);
#57=ORIENTED_EDGE('',*,*,#93,.T.);
#58=ORIENTED_EDGE('',*,*,#94,.F.);
#59=ORIENTED_EDGE('',*,*,#95,.T.);
#60=ORIENTED_EDGE('',*,*,#95,.F.);
#61=ORIENTED_EDGE('',*,*,#96,.T.);
#62=ORIENTED_EDGE('',*,*,#96,.F.);
#63=ORIENTED_EDGE('',*,*,#97,.T.);
#64=ORIENTED_EDGE('',*,*,#97,.F.);
#65=ORIENTED_EDGE('',*,*,#98,.T.);
#66=ORIENTED_EDGE('',*,*,#99,.T.);
#67=ORIENTED_EDGE('',*,*,#98,.F.);
#68=ORIENTED_EDGE('',*,*,#99,.F.);
#69=ORIENTED_EDGE('',*,*,#92,.T.);
#70=ORIENTED_EDGE('',*,*,#100,.F.);
#71=ORIENTED_EDGE('',*,*,#84,.F.);
#72=ORIENTED_EDGE('',*,*,#101,.T.);
#73=ORIENTED_EDGE('',*,*,#100,.T.);
#74=ORIENTED_EDGE('',*,*,#102,.T.);
#75=ORIENTED_EDGE('',*,*,#101,.F.);
#76=ORIENTED_EDGE('',*,*,#103,.F.);
#77=ORIENTED_EDGE('',*,*,#103,.T.);
#78=ORIENTED_EDGE('',*,*,#104,.F.);
#79=ORIENTED_EDGE('',*,*,#104,.T.);
#80=ORIENTED_EDGE('',*,*,#105,.F.);
#81=ORIENTED_EDGE('',*,*,#105,.T.);
#82=ORIENTED_EDGE('',*,*,#102,.F.);
#83=EDGE_CURVE('',#106,#106,#131,.T.);
#84=EDGE_CURVE('',#107,#107,#132,.T.);
#85=EDGE_CURVE('',#108,#108,#133,.F.);
#86=EDGE_CURVE('',#109,#109,#134,.T.);
#87=EDGE_CURVE('',#110,#110,#135,.F.);
#88=EDGE_CURVE('',#111,#111,#136,.T.);
#89=EDGE_CURVE('',#112,#112,#137,.F.);
#90=EDGE_CURVE('',#113,#113,#138,.T.);
#91=EDGE_CURVE('',#114,#114,#139,.T.);
#92=EDGE_CURVE('',#115,#115,#140,.T.);
#93=EDGE_CURVE('',#116,#116,#141,.T.);
#94=EDGE_CURVE('',#118,#118,#142,.T.);
#95=EDGE_CURVE('',#119,#119,#143,.T.);
#96=EDGE_CURVE('',#120,#120,#144,.T.);
#97=EDGE_CURVE('',#121,#121,#145,.T.);
#98=EDGE_CURVE('',#122,#122,#146,.T.);
#99=EDGE_CURVE('',#123,#123,#147,.T.);
#100=EDGE_CURVE('',#124,#124,#148,.F.);
#101=EDGE_CURVE('',#125,#125,#149,.F.);
#102=EDGE_CURVE('',#126,#126,#150,.T.);
#103=EDGE_CURVE('',#128,#128,#151,.T.);
#104=EDGE_CURVE('',#129,#129,#152,.T.);
#105=EDGE_CURVE('',#130,#130,#153,.T.);
#106=VERTEX_POINT('',#602);
#107=VERTEX_POINT('',#604);
#108=VERTEX_POINT('',#607);
#109=VERTEX_POINT('',#609);
#110=VERTEX_POINT('',#612);
#111=VERTEX_POINT('',#615);
#112=VERTEX_POINT('',#617);
#113=VERTEX_POINT('',#620);
#114=VERTEX_POINT('',#622);
#115=VERTEX_POINT('',#628);
#116=VERTEX_POINT('',#631);
#117=VERTEX_POINT('',#632);
#118=VERTEX_POINT('',#635);
#119=VERTEX_POINT('',#638);
#120=VERTEX_POINT('',#641);
#121=VERTEX_POINT('',#644);
#122=VERTEX_POINT('',#647);
#123=VERTEX_POINT('',#650);
#124=VERTEX_POINT('',#654);
#125=VERTEX_POINT('',#657);
#126=VERTEX_POINT('',#660);
#127=VERTEX_POINT('',#662);
#128=VERTEX_POINT('',#664);
#129=VERTEX_POINT('',#667);
#130=VERTEX_POINT('',#670);
#131=CIRCLE('',#457,19.7136296694844);
#132=CIRCLE('',#458,20.);
#133=CIRCLE('',#460,23.);
#134=CIRCLE('',#461,22.6379705298631);
#135=CIRCLE('',#463,23.);
#136=CIRCLE('',#465,22.45);
#137=CIRCLE('',#466,20.1);
#138=CIRCLE('',#468,19.7);
#139=CIRCLE('',#469,19.7);
#140=CIRCLE('',#474,12.3527103680974);
#141=CIRCLE('',#476,6.9175);
#142=CIRCLE('',#478,6.9175);
#143=CIRCLE('',#480,8.35);
#144=CIRCLE('',#482,8.5);
#145=CIRCLE('',#484,8.5);
#146=CIRCLE('',#486,9.5);
#147=CIRCLE('',#488,11.4577134988968);
#148=CIRCLE('',#491,20.);
#149=CIRCLE('',#493,19.5);
#150=CIRCLE('',#495,13.25);
#151=CIRCLE('',#497,12.5);
#152=CIRCLE('',#499,12.5);
#153=CIRCLE('',#501,12.7732050807569);
#154=EDGE_LOOP('',(#37));
#155=EDGE_LOOP('',(#38));
#156=EDGE_LOOP('',(#39));
#157=EDGE_LOOP('',(#40));
#158=EDGE_LOOP('',(#41));
#159=EDGE_LOOP('',(#42));
#160=EDGE_LOOP('',(#43));
#161=EDGE_LOOP('',(#44));
#162=EDGE_LOOP('',(#45));
#163=EDGE_LOOP('',(#46));
#164=EDGE_LOOP('',(#47));
#165=EDGE_LOOP('',(#48));
#166=EDGE_LOOP('',(#49));
#167=EDGE_LOOP('',(#50));
#168=EDGE_LOOP('',(#51));
#169=EDGE_LOOP('',(#52));
#170=EDGE_LOOP('',(#53));
#171=EDGE_LOOP('',(#54));
#172=EDGE_LOOP('',(#55));
#173=EDGE_LOOP('',(#56));
#174=EDGE_LOOP('',(#57));
#175=EDGE_LOOP('',(#58));
#176=EDGE_LOOP('',(#59));
#177=EDGE_LOOP('',(#60));
#178=EDGE_LOOP('',(#61));
#179=EDGE_LOOP('',(#62));
#180=EDGE_LOOP('',(#63));
#181=EDGE_LOOP('',(#64));
#182=EDGE_LOOP('',(#65));
#183=EDGE_LOOP('',(#66));
#184=EDGE_LOOP('',(#67));
#185=EDGE_LOOP('',(#68));
#186=EDGE_LOOP('',(#69));
#187=EDGE_LOOP('',(#70));
#188=EDGE_LOOP('',(#71));
#189=EDGE_LOOP('',(#72));
#190=EDGE_LOOP('',(#73));
#191=EDGE_LOOP('',(#74));
#192=EDGE_LOOP('',(#75));
#193=EDGE_LOOP('',(#76));
#194=EDGE_LOOP('',(#77));
#195=EDGE_LOOP('',(#78));
#196=EDGE_LOOP('',(#79));
#197=EDGE_LOOP('',(#80));
#198=EDGE_LOOP('',(#81));
#199=EDGE_LOOP('',(#82));
#200=FACE_BOUND('',#154,.T.);
#201=FACE_BOUND('',#155,.T.);
#202=FACE_BOUND('',#156,.T.);
#203=FACE_BOUND('',#157,.T.);
#204=FACE_BOUND('',#158,.T.);
#205=FACE_BOUND('',#159,.T.);
#206=FACE_BOUND('',#160,.T.);
#207=FACE_BOUND('',#161,.T.);
#208=FACE_BOUND('',#162,.T.);
#209=FACE_BOUND('',#163,.T.);
#210=FACE_BOUND('',#164,.T.);
#211=FACE_BOUND('',#165,.T.);
#212=FACE_BOUND('',#166,.T.);
#213=FACE_BOUND('',#167,.T.);
#214=FACE_BOUND('',#168,.T.);
#215=FACE_BOUND('',#169,.T.);
#216=FACE_BOUND('',#170,.T.);
#217=FACE_BOUND('',#171,.T.);
#218=FACE_BOUND('',#172,.T.);
#219=FACE_BOUND('',#20,.T.);
#220=FACE_BOUND('',#173,.T.);
#221=FACE_BOUND('',#174,.T.);
#222=FACE_BOUND('',#175,.T.);
#223=FACE_BOUND('',#176,.T.);
#224=FACE_BOUND('',#177,.T.);
#225=FACE_BOUND('',#178,.T.);
#226=FACE_BOUND('',#179,.T.);
#227=FACE_BOUND('',#180,.T.);
#228=FACE_BOUND('',#181,.T.);
#229=FACE_BOUND('',#182,.T.);
#230=FACE_BOUND('',#183,.T.);
#231=FACE_BOUND('',#184,.T.);
#232=FACE_BOUND('',#185,.T.);
#233=FACE_BOUND('',#186,.T.);
#234=FACE_BOUND('',#187,.T.);
#235=FACE_BOUND('',#188,.T.);
#236=FACE_BOUND('',#189,.T.);
#237=FACE_BOUND('',#190,.T.);
#238=FACE_BOUND('',#191,.T.);
#239=FACE_BOUND('',#192,.T.);
#240=FACE_BOUND('',#21,.T.);
#241=FACE_BOUND('',#193,.T.);
#242=FACE_BOUND('',#194,.T.);
#243=FACE_BOUND('',#195,.T.);
#244=FACE_BOUND('',#196,.T.);
#245=FACE_BOUND('',#197,.T.);
#246=FACE_BOUND('',#198,.T.);
#247=FACE_BOUND('',#199,.T.);
#248=CONICAL_SURFACE('',#456,19.7,0.261799387799151);
#249=CONICAL_SURFACE('',#472,23.,0.785398163397451);
#250=CONICAL_SURFACE('',#473,12.3527103680974,0.144811713367222);
#251=CONICAL_SURFACE('',#475,6.9175,1.02974425867665);
#252=CONICAL_SURFACE('',#479,8.35,0.785398163397448);
#253=CONICAL_SURFACE('',#492,20.05,0.785398163397457);
#254=CONICAL_SURFACE('',#496,12.5,1.22173047639603);
#255=CONICAL_SURFACE('',#500,12.7732050807569,0.523598775598305);
#256=CONICAL_SURFACE('',#502,13.3,0.785398163397432);
#257=STYLED_ITEM('',(#281),#427);
#258=STYLED_ITEM('',(#282),#428);
#259=STYLED_ITEM('',(#283),#429);
#260=STYLED_ITEM('',(#284),#430);
#261=STYLED_ITEM('',(#285),#431);
#262=STYLED_ITEM('',(#286),#432);
#263=STYLED_ITEM('',(#287),#433);
#264=STYLED_ITEM('',(#288),#434);
#265=STYLED_ITEM('',(#289),#435);
#266=STYLED_ITEM('',(#290),#436);
#267=STYLED_ITEM('',(#291),#437);
#268=STYLED_ITEM('',(#292),#438);
#269=STYLED_ITEM('',(#293),#439);
#270=STYLED_ITEM('',(#294),#440);
#271=STYLED_ITEM('',(#295),#441);
#272=STYLED_ITEM('',(#296),#442);
#273=STYLED_ITEM('',(#297),#443);
#274=STYLED_ITEM('',(#298),#444);
#275=STYLED_ITEM('',(#299),#445);
#276=STYLED_ITEM('',(#300),#446);
#277=STYLED_ITEM('',(#301),#447);
#278=STYLED_ITEM('',(#302),#448);
#279=STYLED_ITEM('',(#303),#449);
#280=STYLED_ITEM('',(#304),#450);
#281=PRESENTATION_STYLE_ASSIGNMENT((#305));
#282=PRESENTATION_STYLE_ASSIGNMENT((#306));
#283=PRESENTATION_STYLE_ASSIGNMENT((#307));
#284=PRESENTATION_STYLE_ASSIGNMENT((#308));
#285=PRESENTATION_STYLE_ASSIGNMENT((#309));
#286=PRESENTATION_STYLE_ASSIGNMENT((#310));
#287=PRESENTATION_STYLE_ASSIGNMENT((#311));
#288=PRESENTATION_STYLE_ASSIGNMENT((#312));
#289=PRESENTATION_STYLE_ASSIGNMENT((#313));
#290=PRESENTATION_STYLE_ASSIGNMENT((#314));
#291=PRESENTATION_STYLE_ASSIGNMENT((#315));
#292=PRESENTATION_STYLE_ASSIGNMENT((#316));
#293=PRESENTATION_STYLE_ASSIGNMENT((#317));
#294=PRESENTATION_STYLE_ASSIGNMENT((#318));
#295=PRESENTATION_STYLE_ASSIGNMENT((#319));
#296=PRESENTATION_STYLE_ASSIGNMENT((#320));
#297=PRESENTATION_STYLE_ASSIGNMENT((#321));
#298=PRESENTATION_STYLE_ASSIGNMENT((#322));
#299=PRESENTATION_STYLE_ASSIGNMENT((#323));
#300=PRESENTATION_STYLE_ASSIGNMENT((#324));
#301=PRESENTATION_STYLE_ASSIGNMENT((#325));
#302=PRESENTATION_STYLE_ASSIGNMENT((#326));
#303=PRESENTATION_STYLE_ASSIGNMENT((#327));
#304=PRESENTATION_STYLE_ASSIGNMENT((#328));
#305=SURFACE_STYLE_USAGE(.BOTH.,#329);
#306=SURFACE_STYLE_USAGE(.BOTH.,#330);
#307=SURFACE_STYLE_USAGE(.BOTH.,#331);
#308=SURFACE_STYLE_USAGE(.BOTH.,#332);
#309=SURFACE_STYLE_USAGE(.BOTH.,#333);
#310=SURFACE_STYLE_USAGE(.BOTH.,#334);
#311=SURFACE_STYLE_USAGE(.BOTH.,#335);
#312=SURFACE_STYLE_USAGE(.BOTH.,#336);
#313=SURFACE_STYLE_USAGE(.BOTH.,#337);
#314=SURFACE_STYLE_USAGE(.BOTH.,#338);
#315=SURFACE_STYLE_USAGE(.BOTH.,#339);
#316=SURFACE_STYLE_USAGE(.BOTH.,#340);
#317=SURFACE_STYLE_USAGE(.BOTH.,#341);
#318=SURFACE_STYLE_USAGE(.BOTH.,#342);
#319=SURFACE_STYLE_USAGE(.BOTH.,#343);
#320=SURFACE_STYLE_USAGE(.BOTH.,#344);
#321=SURFACE_STYLE_USAGE(.BOTH.,#345);
#322=SURFACE_STYLE_USAGE(.BOTH.,#346);
#323=SURFACE_STYLE_USAGE(.BOTH.,#347);
#324=SURFACE_STYLE_USAGE(.BOTH.,#348);
#325=SURFACE_STYLE_USAGE(.BOTH.,#349);
#326=SURFACE_STYLE_USAGE(.BOTH.,#350);
#327=SURFACE_STYLE_USAGE(.BOTH.,#351);
#328=SURFACE_STYLE_USAGE(.BOTH.,#352);
#329=SURFACE_SIDE_STYLE('',(#353));
#330=SURFACE_SIDE_STYLE('',(#354));
#331=SURFACE_SIDE_STYLE('',(#355));
#332=SURFACE_SIDE_STYLE('',(#356));
#333=SURFACE_SIDE_STYLE('',(#357));
#334=SURFACE_SIDE_STYLE('',(#358));
#335=SURFACE_SIDE_STYLE('',(#359));
#336=SURFACE_SIDE_STYLE('',(#360));
#337=SURFACE_SIDE_STYLE('',(#361));
#338=SURFACE_SIDE_STYLE('',(#362));
#339=SURFACE_SIDE_STYLE('',(#363));
#340=SURFACE_SIDE_STYLE('',(#364));
#341=SURFACE_SIDE_STYLE('',(#365));
#342=SURFACE_SIDE_STYLE('',(#366));
#343=SURFACE_SIDE_STYLE('',(#367));
#344=SURFACE_SIDE_STYLE('',(#368));
#345=SURFACE_SIDE_STYLE('',(#369));
#346=SURFACE_SIDE_STYLE('',(#370));
#347=SURFACE_SIDE_STYLE('',(#371));
#348=SURFACE_SIDE_STYLE('',(#372));
#349=SURFACE_SIDE_STYLE('',(#373));
#350=SURFACE_SIDE_STYLE('',(#374));
#351=SURFACE_SIDE_STYLE('',(#375));
#352=SURFACE_SIDE_STYLE('',(#376));
#353=SURFACE_STYLE_FILL_AREA(#377);
#354=SURFACE_STYLE_FILL_AREA(#378);
#355=SURFACE_STYLE_FILL_AREA(#379);
#356=SURFACE_STYLE_FILL_AREA(#380);
#357=SURFACE_STYLE_FILL_AREA(#381);
#358=SURFACE_STYLE_FILL_AREA(#382);
#359=SURFACE_STYLE_FILL_AREA(#383);
#360=SURFACE_STYLE_FILL_AREA(#384);
#361=SURFACE_STYLE_FILL_AREA(#385);
#362=SURFACE_STYLE_FILL_AREA(#386);
#363=SURFACE_STYLE_FILL_AREA(#387);
#364=SURFACE_STYLE_FILL_AREA(#388);
#365=SURFACE_STYLE_FILL_AREA(#389);
#366=SURFACE_STYLE_FILL_AREA(#390);
#367=SURFACE_STYLE_FILL_AREA(#391);
#368=SURFACE_STYLE_FILL_AREA(#392);
#369=SURFACE_STYLE_FILL_AREA(#393);
#370=SURFACE_STYLE_FILL_AREA(#394);
#371=SURFACE_STYLE_FILL_AREA(#395);
#372=SURFACE_STYLE_FILL_AREA(#396);
#373=SURFACE_STYLE_FILL_AREA(#397);
#374=SURFACE_STYLE_FILL_AREA(#398);
#375=SURFACE_STYLE_FILL_AREA(#399);
#376=SURFACE_STYLE_FILL_AREA(#400);
#377=FILL_AREA_STYLE('',(#401));
#378=FILL_AREA_STYLE('',(#402));
#379=FILL_AREA_STYLE('',(#403));
#380=FILL_AREA_STYLE('',(#404));
#381=FILL_AREA_STYLE('',(#405));
#382=FILL_AREA_STYLE('',(#406));
#383=FILL_AREA_STYLE('',(#407));
#384=FILL_AREA_STYLE('',(#408));
#385=FILL_AREA_STYLE('',(#409));
#386=FILL_AREA_STYLE('',(#410));
#387=FILL_AREA_STYLE('',(#411));
#388=FILL_AREA_STYLE('',(#412));
#389=FILL_AREA_STYLE('',(#413));
#390=FILL_AREA_STYLE('',(#414));
#391=FILL_AREA_STYLE('',(#415));
#392=FILL_AREA_STYLE('',(#416));
#393=FILL_AREA_STYLE('',(#417));
#394=FILL_AREA_STYLE('',(#418));
#395=FILL_AREA_STYLE('',(#419));
#396=FILL_AREA_STYLE('',(#420));
#397=FILL_AREA_STYLE('',(#421));
#398=FILL_AREA_STYLE('',(#422));
#399=FILL_AREA_STYLE('',(#423));
#400=FILL_AREA_STYLE('',(#424));
#401=FILL_AREA_STYLE_COLOUR('',#425);
#402=FILL_AREA_STYLE_COLOUR('',#425);
#403=FILL_AREA_STYLE_COLOUR('',#425);
#404=FILL_AREA_STYLE_COLOUR('',#425);
#405=FILL_AREA_STYLE_COLOUR('',#425);
#406=FILL_AREA_STYLE_COLOUR('',#425);
#407=FILL_AREA_STYLE_COLOUR('',#425);
#408=FILL_AREA_STYLE_COLOUR('',#425);
#409=FILL_AREA_STYLE_COLOUR('',#425);
#410=FILL_AREA_STYLE_COLOUR('',#425);
#411=FILL_AREA_STYLE_COLOUR('',#426);
#412=FILL_AREA_STYLE_COLOUR('',#425);
#413=FILL_AREA_STYLE_COLOUR('',#425);
#414=FILL_AREA_STYLE_COLOUR('',#425);
#415=FILL_AREA_STYLE_COLOUR('',#425);
#416=FILL_AREA_STYLE_COLOUR('',#425);
#417=FILL_AREA_STYLE_COLOUR('',#425);
#418=FILL_AREA_STYLE_COLOUR('',#425);
#419=FILL_AREA_STYLE_COLOUR('',#425);
#420=FILL_AREA_STYLE_COLOUR('',#425);
#421=FILL_AREA_STYLE_COLOUR('',#425);
#422=FILL_AREA_STYLE_COLOUR('',#425);
#423=FILL_AREA_STYLE_COLOUR('',#425);
#424=FILL_AREA_STYLE_COLOUR('',#425);
#425=COLOUR_RGB( ' ', 0.5, 0.5, 0.5 );
#426=COLOUR_RGB( ' ', 0.5, 0.5, 0.5 );
#427=ADVANCED_FACE('',(#200,#201),#248,.T.);
#428=ADVANCED_FACE('',(#202,#203),#32,.F.);
#429=ADVANCED_FACE('',(#204,#205),#26,.T.);
#430=ADVANCED_FACE('',(#206,#207),#22,.T.);
#431=ADVANCED_FACE('',(#208,#209),#27,.T.);
#432=ADVANCED_FACE('',(#210,#211),#33,.F.);
#433=ADVANCED_FACE('',(#212,#213),#34,.F.);
#434=ADVANCED_FACE('',(#214,#215),#249,.T.);
#435=ADVANCED_FACE('',(#216,#217),#250,.T.);
#436=ADVANCED_FACE('',(#218,#219),#251,.F.);
#437=ADVANCED_FACE('',(#220,#221),#28,.F.);
#438=ADVANCED_FACE('',(#222,#223),#252,.F.);
#439=ADVANCED_FACE('',(#224,#225),#23,.F.);
#440=ADVANCED_FACE('',(#226,#227),#29,.F.);
#441=ADVANCED_FACE('',(#228,#229),#35,.T.);
#442=ADVANCED_FACE('',(#230,#231),#24,.F.);
#443=ADVANCED_FACE('',(#232,#233),#36,.T.);
#444=ADVANCED_FACE('',(#234,#235),#30,.T.);
#445=ADVANCED_FACE('',(#236,#237),#253,.T.);
#446=ADVANCED_FACE('',(#238,#239),#25,.T.);
#447=ADVANCED_FACE('',(#240,#241),#254,.F.);
#448=ADVANCED_FACE('',(#242,#243),#31,.F.);
#449=ADVANCED_FACE('',(#244,#245),#255,.F.);
#450=ADVANCED_FACE('',(#246,#247),#256,.F.);
#451=CLOSED_SHELL('',(#427,#428,#429,#430,#431,#432,#433,#434,#435,#436,
#437,#438,#439,#440,#441,#442,#443,#444,#445,#446,#447,#448,#449,#450));
#452=MANIFOLD_SOLID_BREP('NOCUT',#451);
#453=SHAPE_DEFINITION_REPRESENTATION(#678,#454);
#454=SHAPE_REPRESENTATION('755040000',(#455),#673);
#455=AXIS2_PLACEMENT_3D('',#599,#503,#504);
#456=AXIS2_PLACEMENT_3D('',#600,#505,#506);
#457=AXIS2_PLACEMENT_3D('',#601,#507,#508);
#458=AXIS2_PLACEMENT_3D('',#603,#509,#510);
#459=AXIS2_PLACEMENT_3D('',#605,#511,#512);
#460=AXIS2_PLACEMENT_3D('',#606,#513,#514);
#461=AXIS2_PLACEMENT_3D('',#608,#515,#516);
#462=AXIS2_PLACEMENT_3D('',#610,#517,#518);
#463=AXIS2_PLACEMENT_3D('',#611,#519,#520);
#464=AXIS2_PLACEMENT_3D('',#613,#521,#522);
#465=AXIS2_PLACEMENT_3D('',#614,#523,#524);
#466=AXIS2_PLACEMENT_3D('',#616,#525,#526);
#467=AXIS2_PLACEMENT_3D('',#618,#527,#528);
#468=AXIS2_PLACEMENT_3D('',#619,#529,#530);
#469=AXIS2_PLACEMENT_3D('',#621,#531,#532);
#470=AXIS2_PLACEMENT_3D('',#623,#533,#534);
#471=AXIS2_PLACEMENT_3D('',#624,#535,#536);
#472=AXIS2_PLACEMENT_3D('',#625,#537,#538);
#473=AXIS2_PLACEMENT_3D('',#626,#539,#540);
#474=AXIS2_PLACEMENT_3D('',#627,#541,#542);
#475=AXIS2_PLACEMENT_3D('',#629,#543,#544);
#476=AXIS2_PLACEMENT_3D('',#630,#545,#546);
#477=AXIS2_PLACEMENT_3D('',#633,#547,#548);
#478=AXIS2_PLACEMENT_3D('',#634,#549,#550);
#479=AXIS2_PLACEMENT_3D('',#636,#551,#552);
#480=AXIS2_PLACEMENT_3D('',#637,#553,#554);
#481=AXIS2_PLACEMENT_3D('',#639,#555,#556);
#482=AXIS2_PLACEMENT_3D('',#640,#557,#558);
#483=AXIS2_PLACEMENT_3D('',#642,#559,#560);
#484=AXIS2_PLACEMENT_3D('',#643,#561,#562);
#485=AXIS2_PLACEMENT_3D('',#645,#563,#564);
#486=AXIS2_PLACEMENT_3D('',#646,#565,#566);
#487=AXIS2_PLACEMENT_3D('',#648,#567,#568);
#488=AXIS2_PLACEMENT_3D('',#649,#569,#570);
#489=AXIS2_PLACEMENT_3D('',#651,#571,#572);
#490=AXIS2_PLACEMENT_3D('',#652,#573,#574);
#491=AXIS2_PLACEMENT_3D('',#653,#575,#576);
#492=AXIS2_PLACEMENT_3D('',#655,#577,#578);
#493=AXIS2_PLACEMENT_3D('',#656,#579,#580);
#494=AXIS2_PLACEMENT_3D('',#658,#581,#582);
#495=AXIS2_PLACEMENT_3D('',#659,#583,#584);
#496=AXIS2_PLACEMENT_3D('',#661,#585,#586);
#497=AXIS2_PLACEMENT_3D('',#663,#587,#588);
#498=AXIS2_PLACEMENT_3D('',#665,#589,#590);
#499=AXIS2_PLACEMENT_3D('',#666,#591,#592);
#500=AXIS2_PLACEMENT_3D('',#668,#593,#594);
#501=AXIS2_PLACEMENT_3D('',#669,#595,#596);
#502=AXIS2_PLACEMENT_3D('',#671,#597,#598);
#503=DIRECTION('',(0.,0.,1.));
#504=DIRECTION('',(1.,0.,0.));
#505=DIRECTION('',(4.12368997395969E-17,0.,-1.));
#506=DIRECTION('',(-1.,0.,-4.12368997395969E-17));
#507=DIRECTION('',(4.12368997395969E-17,0.,-1.));
#508=DIRECTION('',(-1.,0.,-4.12368997395969E-17));
#509=DIRECTION('',(0.,0.,1.));
#510=DIRECTION('',(1.,0.,0.));
#511=DIRECTION('',(0.,0.,1.));
#512=DIRECTION('',(1.,0.,0.));
#513=DIRECTION('',(0.,0.,1.));
#514=DIRECTION('',(1.,0.,0.));
#515=DIRECTION('',(0.,0.,1.));
#516=DIRECTION('',(1.,0.,0.));
#517=DIRECTION('',(0.,0.,1.));
#518=DIRECTION('',(1.,0.,0.));
#519=DIRECTION('',(0.,0.,-1.));
#520=DIRECTION('',(-1.,0.,0.));
#521=DIRECTION('',(0.,0.,-1.));
#522=DIRECTION('',(-1.,0.,0.));
#523=DIRECTION('',(0.,0.,-1.));
#524=DIRECTION('',(-1.,0.,0.));
#525=DIRECTION('',(0.,0.,-1.));
#526=DIRECTION('',(-1.,0.,0.));
#527=DIRECTION('',(-4.12368997395969E-17,0.,1.));
#528=DIRECTION('',(1.,0.,4.12368997395969E-17));
#529=DIRECTION('',(0.,0.,-1.));
#530=DIRECTION('',(-1.,0.,0.));
#531=DIRECTION('',(-4.12368997395969E-17,0.,1.));
#532=DIRECTION('',(1.,0.,4.12368997395969E-17));
#533=DIRECTION('',(-4.12368997395969E-17,0.,1.));
#534=DIRECTION('',(1.,0.,4.12368997395969E-17));
#535=DIRECTION('',(0.,0.,-1.));
#536=DIRECTION('',(-1.,0.,0.));
#537=DIRECTION('',(0.,0.,1.));
#538=DIRECTION('',(1.,0.,0.));
#539=DIRECTION('',(0.,0.,-1.));
#540=DIRECTION('',(-1.,0.,0.));
#541=DIRECTION('',(0.,0.,1.));
#542=DIRECTION('',(1.,0.,0.));
#543=DIRECTION('',(0.,0.,1.));
#544=DIRECTION('',(-1.,0.,0.));
#545=DIRECTION('',(0.,0.,-1.));
#546=DIRECTION('',(-1.,0.,0.));
#547=DIRECTION('',(0.,0.,-1.));
#548=DIRECTION('',(1.,0.,0.));
#549=DIRECTION('',(0.,0.,1.));
#550=DIRECTION('',(1.,0.,0.));
#551=DIRECTION('',(0.,0.,1.));
#552=DIRECTION('',(1.,0.,0.));
#553=DIRECTION('',(0.,0.,1.));
#554=DIRECTION('',(1.,0.,0.));
#555=DIRECTION('',(0.,0.,-1.));
#556=DIRECTION('',(-1.,0.,0.));
#557=DIRECTION('',(0.,0.,1.));
#558=DIRECTION('',(1.,0.,0.));
#559=DIRECTION('',(0.,0.,1.));
#560=DIRECTION('',(1.,0.,0.));
#561=DIRECTION('',(0.,0.,1.));
#562=DIRECTION('',(1.,0.,0.));
#563=DIRECTION('',(0.,0.,1.));
#564=DIRECTION('',(1.,0.,0.));
#565=DIRECTION('',(0.,0.,1.));
#566=DIRECTION('',(1.,0.,0.));
#567=DIRECTION('',(0.,0.,-1.));
#568=DIRECTION('',(-1.,0.,0.));
#569=DIRECTION('',(0.,0.,1.));
#570=DIRECTION('',(1.,0.,0.));
#571=DIRECTION('',(0.,0.,1.));
#572=DIRECTION('',(1.,0.,0.));
#573=DIRECTION('',(0.,0.,1.));
#574=DIRECTION('',(1.,0.,0.));
#575=DIRECTION('',(-4.1236899739598E-17,0.,1.));
#576=DIRECTION('',(1.,0.,4.1236899739598E-17));
#577=DIRECTION('',(-4.1236899739598E-17,0.,1.));
#578=DIRECTION('',(1.,0.,4.1236899739598E-17));
#579=DIRECTION('',(0.,0.,-1.));
#580=DIRECTION('',(-1.,0.,0.));
#581=DIRECTION('',(0.,0.,-1.));
#582=DIRECTION('',(-1.,0.,0.));
#583=DIRECTION('',(0.,0.,1.));
#584=DIRECTION('',(1.,0.,0.));
#585=DIRECTION('',(4.12368997395969E-17,0.,-1.));
#586=DIRECTION('',(-1.,0.,-4.12368997395969E-17));
#587=DIRECTION('',(-4.12368997395969E-17,0.,1.));
#588=DIRECTION('',(1.,0.,4.12368997395969E-17));
#589=DIRECTION('',(-4.12368997395969E-17,0.,1.));
#590=DIRECTION('',(1.,0.,4.12368997395969E-17));
#591=DIRECTION('',(0.,0.,1.));
#592=DIRECTION('',(1.,0.,0.));
#593=DIRECTION('',(0.,0.,-1.));
#594=DIRECTION('',(-1.,0.,0.));
#595=DIRECTION('',(0.,0.,1.));
#596=DIRECTION('',(1.,0.,0.));
#597=DIRECTION('',(0.,0.,-1.));
#598=DIRECTION('',(-1.,0.,0.));
#599=CARTESIAN_POINT('',(0.,0.,0.));
#600=CARTESIAN_POINT('',(1.60567506904724E-16,0.,-18.8937822173509));
#601=CARTESIAN_POINT('',(1.62665088572769E-16,0.,-18.9446488363569));
#602=CARTESIAN_POINT('',(-19.7136296694844,0.,-18.9446488363569));
#603=CARTESIAN_POINT('',(0.,0.,-20.0133974596216));
#604=CARTESIAN_POINT('',(20.,0.,-20.0133974596216));
#605=CARTESIAN_POINT('',(0.,0.,-4.5));
#606=CARTESIAN_POINT('',(0.,0.,-6.5));
#607=CARTESIAN_POINT('',(23.,0.,-6.5));
#608=CARTESIAN_POINT('',(0.,0.,-2.83181348394676));
#609=CARTESIAN_POINT('',(22.6379705298631,0.,-2.83181348394676));
#610=CARTESIAN_POINT('',(0.,0.,60.));
#611=CARTESIAN_POINT('',(0.,0.,-14.45));
#612=CARTESIAN_POINT('',(-23.,0.,-14.45));
#613=CARTESIAN_POINT('',(23.,0.,-15.));
#614=CARTESIAN_POINT('',(0.,0.,-15.));
#615=CARTESIAN_POINT('',(-22.45,0.,-15.));
#616=CARTESIAN_POINT('',(1.64947598958388E-17,0.,-15.));
#617=CARTESIAN_POINT('',(-20.1,0.,-15.));
#618=CARTESIAN_POINT('',(2.08041693494492E-15,0.,-65.4503720716725));
#619=CARTESIAN_POINT('',(1.64947598958388E-17,0.,-15.4));
#620=CARTESIAN_POINT('',(-19.7,0.,-15.4));
#621=CARTESIAN_POINT('',(1.58395930567333E-16,0.,-18.8411212183159));
#622=CARTESIAN_POINT('',(19.7,0.,-18.8411212183159));
#623=CARTESIAN_POINT('',(1.58395930567333E-16,0.,-18.8411212183159));
#624=CARTESIAN_POINT('',(1.64947598958388E-17,0.,-15.4));
#625=CARTESIAN_POINT('',(0.,0.,-14.45));
#626=CARTESIAN_POINT('',(0.,0.,67.696072420265));
#627=CARTESIAN_POINT('',(0.,0.,67.696072420265));
#628=CARTESIAN_POINT('',(12.3527103680974,0.,67.696072420265));
#629=CARTESIAN_POINT('',(-3.03576608295941E-15,0.,28.45));
#630=CARTESIAN_POINT('',(-3.03576608295941E-15,0.,28.45));
#631=CARTESIAN_POINT('',(-6.9175,0.,28.45));
#632=CARTESIAN_POINT('',(-3.03576608295941E-15,0.,24.2935466678769));
#633=CARTESIAN_POINT('',(-3.03576608295941E-15,0.,68.45));
#634=CARTESIAN_POINT('',(0.,0.,58.6175));
#635=CARTESIAN_POINT('',(6.9175,0.,58.6175));
#636=CARTESIAN_POINT('',(0.,0.,60.05));
#637=CARTESIAN_POINT('',(0.,0.,60.05));
#638=CARTESIAN_POINT('',(8.35,0.,60.05));
#639=CARTESIAN_POINT('',(8.5,0.,60.05));
#640=CARTESIAN_POINT('',(0.,0.,60.05));
#641=CARTESIAN_POINT('',(8.5,0.,60.05));
#642=CARTESIAN_POINT('',(0.,0.,60.));
#643=CARTESIAN_POINT('',(0.,0.,67.25));
#644=CARTESIAN_POINT('',(8.5,0.,67.25));
#645=CARTESIAN_POINT('',(0.,0.,67.25));
#646=CARTESIAN_POINT('',(0.,0.,68.25));
#647=CARTESIAN_POINT('',(9.5,0.,68.25));
#648=CARTESIAN_POINT('',(11.4071846178652,0.,68.25));
#649=CARTESIAN_POINT('',(0.,0.,68.25));
#650=CARTESIAN_POINT('',(11.4577134988968,0.,68.25));
#651=CARTESIAN_POINT('',(0.,0.,67.25));
#652=CARTESIAN_POINT('',(0.,0.,60.));
#653=CARTESIAN_POINT('',(1.29690049681032E-14,0.,-329.5));
#654=CARTESIAN_POINT('',(20.,0.,-329.5));
#655=CARTESIAN_POINT('',(1.29669431231163E-14,0.,-329.45));
#656=CARTESIAN_POINT('',(1.21855038730509E-14,0.,-330.));
#657=CARTESIAN_POINT('',(-19.5,0.,-330.));
#658=CARTESIAN_POINT('',(20.,0.,-330.));
#659=CARTESIAN_POINT('',(0.,0.,-330.));
#660=CARTESIAN_POINT('',(13.25,0.,-330.));
#661=CARTESIAN_POINT('',(2.68246032806078E-15,0.,-80.05));
#662=CARTESIAN_POINT('',(1.73472347597681E-15,0.,-75.5003720716725));
#663=CARTESIAN_POINT('',(2.68246032806078E-15,0.,-80.05));
#664=CARTESIAN_POINT('',(12.5,0.,-80.05));
#665=CARTESIAN_POINT('',(2.08041693494492E-15,0.,-65.4503720716725));
#666=CARTESIAN_POINT('',(0.,0.,-329.05));
#667=CARTESIAN_POINT('',(12.5,0.,-329.05));
#668=CARTESIAN_POINT('',(0.,0.,-329.523205080757));
#669=CARTESIAN_POINT('',(0.,0.,-329.523205080757));
#670=CARTESIAN_POINT('',(12.7732050807569,0.,-329.523205080757));
#671=CARTESIAN_POINT('',(0.,0.,-330.05));
#672=MECHANICAL_DESIGN_GEOMETRIC_PRESENTATION_REPRESENTATION('',(#257,#258,
#259,#260,#261,#262,#263,#264,#265,#266,#267,#268,#269,#270,#271,#272,#273,
#274,#275,#276,#277,#278,#279,#280),#673);
#673=(
GEOMETRIC_REPRESENTATION_CONTEXT(3)
GLOBAL_UNCERTAINTY_ASSIGNED_CONTEXT((#674))
GLOBAL_UNIT_ASSIGNED_CONTEXT((#677,#676,#675))
REPRESENTATION_CONTEXT('755040000','TOP_LEVEL_ASSEMBLY_PART')
);
#674=UNCERTAINTY_MEASURE_WITH_UNIT(LENGTH_MEASURE(0.005),#677,
'DISTANCE_ACCURACY_VALUE','Maximum Tolerance applied to model');
#675=(
NAMED_UNIT(*)
SI_UNIT($,.STERADIAN.)
SOLID_ANGLE_UNIT()
);
#676=(
NAMED_UNIT(*)
PLANE_ANGLE_UNIT()
SI_UNIT($,.RADIAN.)
);
#677=(
LENGTH_UNIT()
NAMED_UNIT(*)
SI_UNIT(.MILLI.,.METRE.)
);
#678=PRODUCT_DEFINITION_SHAPE('','',#679);
#679=PRODUCT_DEFINITION('','',#681,#680);
#680=PRODUCT_DEFINITION_CONTEXT('',#687,'design');
#681=PRODUCT_DEFINITION_FORMATION_WITH_SPECIFIED_SOURCE('','',#683,
 .NOT_KNOWN.);
#682=PRODUCT_RELATED_PRODUCT_CATEGORY('','',(#683));
#683=PRODUCT('NOCUT','NOCUT','NOCUT',(#685));
#684=PRODUCT_CATEGORY('','');
#685=PRODUCT_CONTEXT('',#687,'mechanical');
#686=APPLICATION_PROTOCOL_DEFINITION('international standard',
'automotive_design',2010,#687);
#687=APPLICATION_CONTEXT(
'core data for automotive mechanical design processes');
#688=AXIS2_PLACEMENT_3D('PCS',#689,#690,#691);
#689=CARTESIAN_POINT('',(0.,0.,0.));
#690=DIRECTION('',(0.,0.,1.));
#691=DIRECTION('',(1.,0.,0.));
#692=AXIS2_PLACEMENT_3D('MCS',#693,#694,#695);
#693=CARTESIAN_POINT('',(0.,0.,0.));
#694=DIRECTION('',(0.,0.,1.));
#695=DIRECTION('',(1.,0.,0.));
#696=AXIS2_PLACEMENT_3D('CSW',#697,#698,#699);
#697=CARTESIAN_POINT('',(0.,0.,-330.));
#698=DIRECTION('',(0.,0.,1.));
#699=DIRECTION('',(1.,0.,0.));
#700=CONSTRUCTIVE_GEOMETRY_REPRESENTATION_RELATIONSHIP('coordinate systems',$,#19,#701);
#701=CONSTRUCTIVE_GEOMETRY_REPRESENTATION('coordinate systems',(#688, #692, #696),#673);
ENDSEC;
END-ISO-10303-21;

